  0
SECTION
  2
HEADER
  9
$ACADVER
  1
AC1021
  9
$ACADMAINTVER
 70
    25
  9
$DWGCODEPAGE
  3
ANSI_1251
  9
$INSBASE
 10
0.0
 20
0.0
 30
0.0
  9
$EXTMIN
 10
-20.0
 20
-40.00000862079354
 30
0.0
  9
$EXTMAX
 10
20.00001876291176
 20
40.0
 30
0.0
  9
$LIMMIN
 10
0.0
 20
0.0
  9
$LIMMAX
 10
420.0
 20
297.0
  9
$ORTHOMODE
 70
     0
  9
$REGENMODE
 70
     1
  9
$FILLMODE
 70
     1
  9
$QTEXTMODE
 70
     0
  9
$MIRRTEXT
 70
     1
  9
$LTSCALE
 40
1.0
  9
$ATTMODE
 70
     1
  9
$TEXTSIZE
 40
2.5
  9
$TRACEWID
 40
1.0
  9
$TEXTSTYLE
  7
Standard
  9
$CLAYER
  8
0
  9
$CELTYPE
  6
ByLayer
  9
$CECOLOR
 62
   256
  9
$CELTSCALE
 40
1.0
  9
$DISPSILH
 70
     0
  9
$DIMSCALE
 40
1.0
  9
$DIMASZ
 40
2.5
  9
$DIMEXO
 40
0.625
  9
$DIMDLI
 40
3.75
  9
$DIMRND
 40
0.0
  9
$DIMDLE
 40
0.0
  9
$DIMEXE
 40
1.25
  9
$DIMTP
 40
0.0
  9
$DIMTM
 40
0.0
  9
$DIMTXT
 40
2.5
  9
$DIMCEN
 40
2.5
  9
$DIMTSZ
 40
0.0
  9
$DIMTOL
 70
     0
  9
$DIMLIM
 70
     0
  9
$DIMTIH
 70
     0
  9
$DIMTOH
 70
     0
  9
$DIMSE1
 70
     0
  9
$DIMSE2
 70
     0
  9
$DIMTAD
 70
     1
  9
$DIMZIN
 70
     8
  9
$DIMBLK
  1

  9
$DIMASO
 70
     1
  9
$DIMSHO
 70
     1
  9
$DIMPOST
  1

  9
$DIMAPOST
  1

  9
$DIMALT
 70
     0
  9
$DIMALTD
 70
     3
  9
$DIMALTF
 40
0.03937007874016
  9
$DIMLFAC
 40
1.0
  9
$DIMTOFL
 70
     1
  9
$DIMTVP
 40
0.0
  9
$DIMTIX
 70
     0
  9
$DIMSOXD
 70
     0
  9
$DIMSAH
 70
     0
  9
$DIMBLK1
  1

  9
$DIMBLK2
  1

  9
$DIMSTYLE
  2
ISO-25
  9
$DIMCLRD
 70
     0
  9
$DIMCLRE
 70
     0
  9
$DIMCLRT
 70
     0
  9
$DIMTFAC
 40
1.0
  9
$DIMGAP
 40
0.625
  9
$DIMJUST
 70
     0
  9
$DIMSD1
 70
     0
  9
$DIMSD2
 70
     0
  9
$DIMTOLJ
 70
     0
  9
$DIMTZIN
 70
     8
  9
$DIMALTZ
 70
     0
  9
$DIMALTTZ
 70
     0
  9
$DIMUPT
 70
     0
  9
$DIMDEC
 70
     2
  9
$DIMTDEC
 70
     2
  9
$DIMALTU
 70
     2
  9
$DIMALTTD
 70
     3
  9
$DIMTXSTY
  7
Standard
  9
$DIMAUNIT
 70
     0
  9
$DIMADEC
 70
     0
  9
$DIMALTRND
 40
0.0
  9
$DIMAZIN
 70
     0
  9
$DIMDSEP
 70
    44
  9
$DIMATFIT
 70
     3
  9
$DIMFRAC
 70
     0
  9
$DIMLDRBLK
  1

  9
$DIMLUNIT
 70
     2
  9
$DIMLWD
 70
    -2
  9
$DIMLWE
 70
    -2
  9
$DIMTMOVE
 70
     0
  9
$DIMFXL
 40
1.0
  9
$DIMFXLON
 70
     0
  9
$DIMJOGANG
 40
0.7853981633974483
  9
$DIMTFILL
 70
     0
  9
$DIMTFILLCLR
 70
     0
  9
$DIMARCSYM
 70
     0
  9
$DIMLTYPE
  6

  9
$DIMLTEX1
  6

  9
$DIMLTEX2
  6

  9
$LUNITS
 70
     2
  9
$LUPREC
 70
     4
  9
$SKETCHINC
 40
1.0
  9
$FILLETRAD
 40
10.0
  9
$AUNITS
 70
     0
  9
$AUPREC
 70
     0
  9
$MENU
  1
.
  9
$ELEVATION
 40
0.0
  9
$PELEVATION
 40
0.0
  9
$THICKNESS
 40
0.0
  9
$LIMCHECK
 70
     0
  9
$CHAMFERA
 40
10.0
  9
$CHAMFERB
 40
10.0
  9
$CHAMFERC
 40
20.0
  9
$CHAMFERD
 40
0.0
  9
$SKPOLY
 70
     0
  9
$TDCREATE
 40
2457106.78263581
  9
$TDUCREATE
 40
2457106.53263581
  9
$TDUPDATE
 40
2457106.782636713
  9
$TDUUPDATE
 40
2457106.532636713
  9
$TDINDWG
 40
0.0000000116
  9
$TDUSRTIMER
 40
0.0000000116
  9
$USRTIMER
 70
     1
  9
$ANGBASE
 50
0.0
  9
$ANGDIR
 70
     0
  9
$PDMODE
 70
     0
  9
$PDSIZE
 40
0.0
  9
$PLINEWID
 40
0.0
  9
$SPLFRAME
 70
     0
  9
$SPLINETYPE
 70
     6
  9
$SPLINESEGS
 70
     8
  9
$HANDSEED
  5
1F3
  9
$SURFTAB1
 70
     6
  9
$SURFTAB2
 70
     6
  9
$SURFTYPE
 70
     6
  9
$SURFU
 70
     6
  9
$SURFV
 70
     6
  9
$UCSBASE
  2

  9
$UCSNAME
  2

  9
$UCSORG
 10
0.0
 20
0.0
 30
0.0
  9
$UCSXDIR
 10
1.0
 20
0.0
 30
0.0
  9
$UCSYDIR
 10
0.0
 20
1.0
 30
0.0
  9
$UCSORTHOREF
  2

  9
$UCSORTHOVIEW
 70
     0
  9
$UCSORGTOP
 10
0.0
 20
0.0
 30
0.0
  9
$UCSORGBOTTOM
 10
0.0
 20
0.0
 30
0.0
  9
$UCSORGLEFT
 10
0.0
 20
0.0
 30
0.0
  9
$UCSORGRIGHT
 10
0.0
 20
0.0
 30
0.0
  9
$UCSORGFRONT
 10
0.0
 20
0.0
 30
0.0
  9
$UCSORGBACK
 10
0.0
 20
0.0
 30
0.0
  9
$PUCSBASE
  2

  9
$PUCSNAME
  2

  9
$PUCSORG
 10
0.0
 20
0.0
 30
0.0
  9
$PUCSXDIR
 10
1.0
 20
0.0
 30
0.0
  9
$PUCSYDIR
 10
0.0
 20
1.0
 30
0.0
  9
$PUCSORTHOREF
  2

  9
$PUCSORTHOVIEW
 70
     0
  9
$PUCSORGTOP
 10
0.0
 20
0.0
 30
0.0
  9
$PUCSORGBOTTOM
 10
0.0
 20
0.0
 30
0.0
  9
$PUCSORGLEFT
 10
0.0
 20
0.0
 30
0.0
  9
$PUCSORGRIGHT
 10
0.0
 20
0.0
 30
0.0
  9
$PUCSORGFRONT
 10
0.0
 20
0.0
 30
0.0
  9
$PUCSORGBACK
 10
0.0
 20
0.0
 30
0.0
  9
$USERI1
 70
     0
  9
$USERI2
 70
     0
  9
$USERI3
 70
     0
  9
$USERI4
 70
     0
  9
$USERI5
 70
     0
  9
$USERR1
 40
0.0
  9
$USERR2
 40
0.0
  9
$USERR3
 40
0.0
  9
$USERR4
 40
0.0
  9
$USERR5
 40
0.0
  9
$WORLDVIEW
 70
     1
  9
$SHADEDGE
 70
     3
  9
$SHADEDIF
 70
    70
  9
$TILEMODE
 70
     1
  9
$MAXACTVP
 70
    64
  9
$PINSBASE
 10
0.0
 20
0.0
 30
0.0
  9
$PLIMCHECK
 70
     0
  9
$PEXTMIN
 10
1.000000000000000E+20
 20
1.000000000000000E+20
 30
1.000000000000000E+20
  9
$PEXTMAX
 10
-1.000000000000000E+20
 20
-1.000000000000000E+20
 30
-1.000000000000000E+20
  9
$PLIMMIN
 10
0.0
 20
0.0
  9
$PLIMMAX
 10
420.0
 20
297.0
  9
$UNITMODE
 70
     0
  9
$VISRETAIN
 70
     1
  9
$PLINEGEN
 70
     0
  9
$PSLTSCALE
 70
     1
  9
$TREEDEPTH
 70
  3020
  9
$CMLSTYLE
  2
Standard
  9
$CMLJUST
 70
     0
  9
$CMLSCALE
 40
20.0
  9
$PROXYGRAPHICS
 70
     1
  9
$MEASUREMENT
 70
     1
  9
$CELWEIGHT
370
    -1
  9
$ENDCAPS
280
     0
  9
$JOINSTYLE
280
     0
  9
$LWDISPLAY
290
     0
  9
$INSUNITS
 70
     4
  9
$HYPERLINKBASE
  1

  9
$STYLESHEET
  1

  9
$XEDIT
290
     1
  9
$CEPSNTYPE
380
     0
  9
$PSTYLEMODE
290
     1
  9
$FINGERPRINTGUID
  2
{BDF454BB-794C-4FA4-8688-29C223CBE1EE}
  9
$VERSIONGUID
  2
{FAEB1C32-E019-11D5-929B-00C0DF256EC4}
  9
$EXTNAMES
290
     1
  9
$PSVPSCALE
 40
0.0
  9
$OLESTARTUP
290
     0
  9
$SORTENTS
280
   127
  9
$INDEXCTL
280
     0
  9
$HIDETEXT
280
     1
  9
$XCLIPFRAME
290
     0
  9
$HALOGAP
280
     0
  9
$OBSCOLOR
 70
   257
  9
$OBSLTYPE
280
     0
  9
$INTERSECTIONDISPLAY
280
     0
  9
$INTERSECTIONCOLOR
 70
   257
  9
$DIMASSOC
280
     2
  9
$PROJECTNAME
  1

  9
$CAMERADISPLAY
290
     0
  9
$LENSLENGTH
 40
50.0
  9
$CAMERAHEIGHT
 40
0.0
  9
$STEPSPERSEC
 40
2.0
  9
$STEPSIZE
 40
6.0
  9
$3DDWFPREC
 40
2.0
  9
$PSOLWIDTH
 40
5.0
  9
$PSOLHEIGHT
 40
80.0
  9
$LOFTANG1
 40
1.570796326794897
  9
$LOFTANG2
 40
1.570796326794897
  9
$LOFTMAG1
 40
0.0
  9
$LOFTMAG2
 40
0.0
  9
$LOFTPARAM
 70
     7
  9
$LOFTNORMALS
280
     1
  9
$LATITUDE
 40
37.795
  9
$LONGITUDE
 40
-122.394
  9
$NORTHDIRECTION
 40
0.0
  9
$TIMEZONE
 70
 -8000
  9
$LIGHTGLYPHDISPLAY
280
     1
  9
$TILEMODELIGHTSYNCH
280
     1
  9
$SOLIDHIST
280
     1
  9
$SHOWHIST
280
     1
  9
$DWFFRAME
280
     2
  9
$DGNFRAME
280
     2
  9
$REALWORLDSCALE
290
     1
  9
$INTERFERECOLOR
 62
   256
  9
$CSHADOW
280
     0
  9
$SHADOWPLANELOCATION
 40
0.0
  0
ENDSEC
  0
SECTION
  2
CLASSES
  0
CLASS
  1
ACDBDICTIONARYWDFLT
  2
AcDbDictionaryWithDefault
  3
ObjectDBX Classes
 90
        0
 91
        4
280
     0
281
     0
  0
CLASS
  1
VISUALSTYLE
  2
AcDbVisualStyle
  3
ObjectDBX Classes
 90
     4095
 91
        4
280
     0
281
     0
  0
CLASS
  1
MATERIAL
  2
AcDbMaterial
  3
ObjectDBX Classes
 90
     1153
 91
        4
280
     0
281
     0
  0
CLASS
  1
SCALE
  2
AcDbScale
  3
ObjectDBX Classes
 90
     1153
 91
        4
280
     0
281
     0
  0
CLASS
  1
DICTIONARYVAR
  2
AcDbDictionaryVar
  3
ObjectDBX Classes
 90
        0
 91
        4
280
     0
281
     0
  0
ENDSEC
  0
SECTION
  2
TABLES
  0
TABLE
  2
VPORT
  5
8
330
0
100
AcDbSymbolTable
 70
     1
  0
VPORT
  5
29
330
8
100
AcDbSymbolTableRecord
100
AcDbViewportTableRecord
  2
*Active
 70
     0
 10
0.0
 20
0.0
 11
1.0
 21
1.0
 12
0.0000093814558682
 22
-0.0000043103967755
 13
0.0
 23
0.0
 14
10.0
 24
10.0
 15
10.0
 25
10.0
 16
0.0
 26
0.0
 36
1.0
 17
0.0
 27
0.0
 37
0.0
 40
81.60000879320943
 41
0.5000001806564175
 42
50.0
 43
0.0
 44
0.0
 50
0.0
 51
0.0
 71
     0
 72
   100
 73
     1
 74
     3
 75
     0
 76
     0
 77
     0
 78
     0
281
     0
 65
     1
110
0.0
120
0.0
130
0.0
111
1.0
121
0.0
131
0.0
112
0.0
122
1.0
132
0.0
 79
     0
146
0.0
 60
     3
 61
     5
292
     1
282
     1
141
0.0
142
0.0
 63
   250
  0
ENDTAB
  0
TABLE
  2
LTYPE
  5
5
330
0
100
AcDbSymbolTable
 70
     6
  0
LTYPE
  5
14
330
5
100
AcDbSymbolTableRecord
100
AcDbLinetypeTableRecord
  2
ByBlock
 70
     0
  3

 72
    65
 73
     0
 40
0.0
  0
LTYPE
  5
15
330
5
100
AcDbSymbolTableRecord
100
AcDbLinetypeTableRecord
  2
ByLayer
 70
     0
  3

 72
    65
 73
     0
 40
0.0
  0
LTYPE
  5
16
330
5
100
AcDbSymbolTableRecord
100
AcDbLinetypeTableRecord
  2
Continuous
 70
     0
  3
Solid line
 72
    65
 73
     0
 40
0.0
  0
LTYPE
  5
43
330
5
100
AcDbSymbolTableRecord
100
AcDbLinetypeTableRecord
  2
K5LT_THIN
 70
     0
  3

 72
    65
 73
     0
 40
0.0
  0
LTYPE
  5
A5
330
5
100
AcDbSymbolTableRecord
100
AcDbLinetypeTableRecord
  2
K5LT32768
 70
     0
  3

 72
    65
 73
     0
 40
0.0
  0
LTYPE
  5
B8
330
5
100
AcDbSymbolTableRecord
100
AcDbLinetypeTableRecord
  2
K5LT32769
 70
     0
  3

 72
    65
 73
     0
 40
0.0
  0
LTYPE
  5
110
330
5
100
AcDbSymbolTableRecord
100
AcDbLinetypeTableRecord
  2
K5LT_BASIC
 70
     0
  3

 72
    65
 73
     0
 40
0.0
  0
LTYPE
  5
120
330
5
100
AcDbSymbolTableRecord
100
AcDbLinetypeTableRecord
  2
K5LT32770
 70
     0
  3

 72
    65
 73
     0
 40
0.0
  0
ENDTAB
  0
TABLE
  2
LAYER
  5
2
330
0
100
AcDbSymbolTable
 70
     3
  0
LAYER
  5
10
330
2
100
AcDbSymbolTableRecord
100
AcDbLayerTableRecord
  2
0
 70
     0
 62
     7
  6
Continuous
370
    -3
390
F
347
3E
  0
LAYER
  5
40
330
2
100
AcDbSymbolTableRecord
100
AcDbLayerTableRecord
  2
0 (1)
 70
     0
 62
     7
  6
Continuous
370
    -3
390
F
347
3E
  0
LAYER
  5
41
330
2
100
AcDbSymbolTableRecord
100
AcDbLayerTableRecord
  2
0 (1) (1)
 70
     0
 62
     7
  6
Continuous
370
    -3
390
F
347
3E
  0
ENDTAB
  0
TABLE
  2
STYLE
  5
3
330
0
100
AcDbSymbolTable
 70
     1
  0
STYLE
  5
11
330
3
100
AcDbSymbolTableRecord
100
AcDbTextStyleTableRecord
  2
Standard
 70
     0
 40
0.0
 41
1.0
 50
0.0
 71
     0
 42
2.5
  3
txt
  4

  0
ENDTAB
  0
TABLE
  2
VIEW
  5
6
330
0
100
AcDbSymbolTable
 70
     0
  0
ENDTAB
  0
TABLE
  2
UCS
  5
7
330
0
100
AcDbSymbolTable
 70
     0
  0
ENDTAB
  0
TABLE
  2
APPID
  5
9
330
0
100
AcDbSymbolTable
 70
     2
  0
APPID
  5
12
330
9
100
AcDbSymbolTableRecord
100
AcDbRegAppTableRecord
  2
ACAD
 70
     0
  0
APPID
  5
3F
330
9
100
AcDbSymbolTableRecord
100
AcDbRegAppTableRecord
  2
KOMPAS
 70
     0
  0
ENDTAB
  0
TABLE
  2
DIMSTYLE
  5
A
330
0
100
AcDbSymbolTable
 70
     1
100
AcDbDimStyleTable
  0
DIMSTYLE
105
27
330
A
100
AcDbSymbolTableRecord
100
AcDbDimStyleTableRecord
  2
ISO-25
 70
     0
 41
2.5
 42
0.625
 43
3.75
 44
1.25
 73
     0
 74
     0
 77
     1
 78
     8
140
2.5
141
2.5
143
0.03937007874016
147
0.625
171
     3
172
     1
178
     0
271
     2
272
     2
274
     3
278
    44
283
     0
284
     8
340
11
  0
ENDTAB
  0
TABLE
  2
BLOCK_RECORD
  5
1
330
0
100
AcDbSymbolTable
 70
    15
  0
BLOCK_RECORD
  5
1F
330
1
100
AcDbSymbolTableRecord
100
AcDbBlockTableRecord
  2
*Model_Space
340
22
 70
     0
280
     1
281
     0
  0
BLOCK_RECORD
  5
1B
330
1
100
AcDbSymbolTableRecord
100
AcDbBlockTableRecord
  2
*Paper_Space
340
1E
 70
     0
280
     1
281
     0
  0
BLOCK_RECORD
  5
23
330
1
100
AcDbSymbolTableRecord
100
AcDbBlockTableRecord
  2
*Paper_Space0
340
26
 70
     0
280
     1
281
     0
  0
BLOCK_RECORD
  5
42
330
1
100
AcDbSymbolTableRecord
100
AcDbBlockTableRecord
  2
KDIMARROW_00
340
0
 70
     0
280
     1
281
     0
  0
BLOCK_RECORD
  5
47
330
1
100
AcDbSymbolTableRecord
100
AcDbBlockTableRecord
  2
KDIMARROW_01
340
0
 70
     0
280
     1
281
     0
  0
BLOCK_RECORD
  5
50
330
1
100
AcDbSymbolTableRecord
100
AcDbBlockTableRecord
  2
KDIMARROW_02
340
0
 70
     0
280
     1
281
     0
  0
BLOCK_RECORD
  5
5A
330
1
100
AcDbSymbolTableRecord
100
AcDbBlockTableRecord
  2
KDIMARROW_03
340
0
 70
     0
280
     1
281
     0
  0
BLOCK_RECORD
  5
60
330
1
100
AcDbSymbolTableRecord
100
AcDbBlockTableRecord
  2
KDIMARROW_04
340
0
 70
     0
280
     1
281
     0
  0
BLOCK_RECORD
  5
66
330
1
100
AcDbSymbolTableRecord
100
AcDbBlockTableRecord
  2
KDIMARROW_05
340
0
 70
     0
280
     1
281
     0
  0
BLOCK_RECORD
  5
6F
330
1
100
AcDbSymbolTableRecord
100
AcDbBlockTableRecord
  2
KDIMARROW_06
340
0
 70
     0
280
     1
281
     0
  0
BLOCK_RECORD
  5
79
330
1
100
AcDbSymbolTableRecord
100
AcDbBlockTableRecord
  2
KDIMARROW_07
340
0
 70
     0
280
     1
281
     0
  0
BLOCK_RECORD
  5
7F
330
1
100
AcDbSymbolTableRecord
100
AcDbBlockTableRecord
  2
KDIMARROW_08
340
0
 70
     0
280
     1
281
     0
  0
BLOCK_RECORD
  5
86
330
1
100
AcDbSymbolTableRecord
100
AcDbBlockTableRecord
  2
KDIMARROW_09
340
0
 70
     0
280
     1
281
     0
  0
BLOCK_RECORD
  5
8C
330
1
100
AcDbSymbolTableRecord
100
AcDbBlockTableRecord
  2
KDIMARROW_10
340
0
 70
     0
280
     1
281
     0
  0
BLOCK_RECORD
  5
93
330
1
100
AcDbSymbolTableRecord
100
AcDbBlockTableRecord
  2
KDIMARROW_11
340
0
 70
     0
280
     1
281
     0
  0
BLOCK_RECORD
  5
99
330
1
100
AcDbSymbolTableRecord
100
AcDbBlockTableRecord
  2
KDIMARROW_12
340
0
 70
     0
280
     1
281
     0
  0
BLOCK_RECORD
  5
9F
330
1
100
AcDbSymbolTableRecord
100
AcDbBlockTableRecord
  2
KDIMARROW_13
340
0
 70
     0
280
     1
281
     0
  0
ENDTAB
  0
ENDSEC
  0
SECTION
  2
BLOCKS
  0
BLOCK
  5
20
330
1F
100
AcDbEntity
  8
0
100
AcDbBlockBegin
  2
*Model_Space
 70
     0
 10
0.0
 20
0.0
 30
0.0
  3
*Model_Space
  1

  0
ENDBLK
  5
21
330
1F
100
AcDbEntity
  8
0
100
AcDbBlockEnd
  0
BLOCK
  5
1C
330
1B
100
AcDbEntity
 67
     1
  8
0
100
AcDbBlockBegin
  2
*Paper_Space
 70
     0
 10
0.0
 20
0.0
 30
0.0
  3
*Paper_Space
  1

  0
ENDBLK
  5
1D
330
1B
100
AcDbEntity
 67
     1
  8
0
100
AcDbBlockEnd
  0
BLOCK
  5
24
330
23
100
AcDbEntity
  8
0
100
AcDbBlockBegin
  2
*Paper_Space0
 70
     0
 10
0.0
 20
0.0
 30
0.0
  3
*Paper_Space0
  1

  0
ENDBLK
  5
25
330
23
100
AcDbEntity
  8
0
100
AcDbBlockEnd
  0
BLOCK
  5
45
330
42
100
AcDbEntity
  8
0
100
AcDbBlockBegin
  2
KDIMARROW_00
 70
     0
 10
0.0
 20
0.0
 30
0.0
  3
KDIMARROW_00
  1

  0
LINE
  5
44
330
42
100
AcDbEntity
  8
0 (1) (1)
  6
K5LT_THIN
 62
     0
370
    18
100
AcDbLine
 10
0.0
 20
0.0
 30
0.0
 11
-1.0
 21
0.0
 31
0.0
  0
ENDBLK
  5
46
330
42
100
AcDbEntity
  8
0
100
AcDbBlockEnd
  0
BLOCK
  5
4E
330
47
100
AcDbEntity
  8
0
100
AcDbBlockBegin
  2
KDIMARROW_01
 70
     0
 10
0.0
 20
0.0
 30
0.0
  3
KDIMARROW_01
  1

  0
LINE
  5
48
330
47
100
AcDbEntity
  8
0
  6
K5LT_THIN
 62
     0
370
    18
100
AcDbLine
 10
0.0
 20
0.0
 30
0.0
 11
-5.0
 21
-0.6582624912261956
 31
0.0
  0
LINE
  5
49
330
47
100
AcDbEntity
  8
0
  6
K5LT_THIN
 62
     0
370
    18
100
AcDbLine
 10
-5.0
 20
-0.6582624912261956
 30
0.0
 11
-4.5
 21
0.0000000000000006
 31
0.0
  0
LINE
  5
4A
330
47
100
AcDbEntity
  8
0
  6
K5LT_THIN
 62
     0
370
    18
100
AcDbLine
 10
-4.5
 20
0.0000000000000006
 30
0.0
 11
-5.0
 21
0.658262491226197
 31
0.0
  0
LINE
  5
4B
330
47
100
AcDbEntity
  8
0
  6
K5LT_THIN
 62
     0
370
    18
100
AcDbLine
 10
-5.0
 20
0.658262491226197
 30
0.0
 11
0.0
 21
0.0
 31
0.0
  0
HATCH
  5
4C
330
47
100
AcDbEntity
  8
0
 62
     0
100
AcDbHatch
 10
0.0
 20
0.0
 30
0.0
210
0.0
220
0.0
230
1.0
  2
SOLID
 70
     1
 71
     0
 91
        1
 92
        1
 93
        4
 72
     1
 10
0.0
 20
0.0
 11
-5.0
 21
0.658262491226197
 72
     1
 10
-5.0
 20
0.658262491226197
 11
-4.5
 21
0.0000000000000006
 72
     1
 10
-4.5
 20
0.0000000000000006
 11
-5.0
 21
-0.6582624912261956
 72
     1
 10
-5.0
 20
-0.6582624912261956
 11
0.0
 21
0.0
 97
        0
 75
     0
 76
     1
 98
        0
  0
LINE
  5
4D
330
47
100
AcDbEntity
  8
0 (1) (1)
  6
K5LT_THIN
 62
     0
370
    18
100
AcDbLine
 10
0.0
 20
0.0
 30
0.0
 11
-1.0
 21
0.0
 31
0.0
  0
ENDBLK
  5
4F
330
47
100
AcDbEntity
  8
0
100
AcDbBlockEnd
  0
BLOCK
  5
58
330
50
100
AcDbEntity
  8
0
100
AcDbBlockBegin
  2
KDIMARROW_02
 70
     0
 10
0.0
 20
0.0
 30
0.0
  3
KDIMARROW_02
  1

  0
LINE
  5
51
330
50
100
AcDbEntity
  8
0
  6
K5LT_THIN
 62
     0
370
    18
100
AcDbLine
 10
0.0
 20
0.0
 30
0.0
 11
5.0
 21
-0.658262491226197
 31
0.0
  0
LINE
  5
52
330
50
100
AcDbEntity
  8
0
  6
K5LT_THIN
 62
     0
370
    18
100
AcDbLine
 10
5.0
 20
-0.658262491226197
 30
0.0
 11
4.5
 21
-0.0000000000000006
 31
0.0
  0
LINE
  5
53
330
50
100
AcDbEntity
  8
0
  6
K5LT_THIN
 62
     0
370
    18
100
AcDbLine
 10
4.5
 20
-0.0000000000000006
 30
0.0
 11
5.0
 21
0.6582624912261956
 31
0.0
  0
LINE
  5
54
330
50
100
AcDbEntity
  8
0
  6
K5LT_THIN
 62
     0
370
    18
100
AcDbLine
 10
5.0
 20
0.6582624912261956
 30
0.0
 11
0.0
 21
0.0
 31
0.0
  0
LINE
  5
55
330
50
100
AcDbEntity
  8
0
  6
K5LT_THIN
 62
     0
370
    18
100
AcDbLine
 10
0.0
 20
0.0
 30
0.0
 11
7.0
 21
-0.0000000000000009
 31
0.0
  0
HATCH
  5
56
330
50
100
AcDbEntity
  8
0
 62
     0
100
AcDbHatch
 10
0.0
 20
0.0
 30
0.0
210
0.0
220
0.0
230
1.0
  2
SOLID
 70
     1
 71
     0
 91
        1
 92
        1
 93
        4
 72
     1
 10
4.5
 20
-0.0000000000000006
 11
5.0
 21
0.6582624912261956
 72
     1
 10
5.0
 20
0.6582624912261956
 11
0.0
 21
0.0
 72
     1
 10
0.0
 20
0.0
 11
5.0
 21
-0.658262491226197
 72
     1
 10
5.0
 20
-0.658262491226197
 11
4.5
 21
-0.0000000000000006
 97
        0
 75
     0
 76
     1
 98
        0
  0
LINE
  5
57
330
50
100
AcDbEntity
  8
0 (1) (1)
  6
K5LT_THIN
 62
     0
370
    18
100
AcDbLine
 10
0.0
 20
0.0
 30
0.0
 11
-1.0
 21
0.0
 31
0.0
  0
ENDBLK
  5
59
330
50
100
AcDbEntity
  8
0
100
AcDbBlockEnd
  0
BLOCK
  5
5E
330
5A
100
AcDbEntity
  8
0
100
AcDbBlockBegin
  2
KDIMARROW_03
 70
     0
 10
0.0
 20
0.0
 30
0.0
  3
KDIMARROW_03
  1

  0
LINE
  5
5B
330
5A
100
AcDbEntity
  8
0
  6
K5LT_THIN
 62
     0
370
    18
100
AcDbLine
 10
-1.060500025749207
 20
-1.060500025749206
 30
0.0
 11
1.060500025749207
 21
1.060500025749206
 31
0.0
  0
LINE
  5
5C
330
5A
100
AcDbEntity
  8
0
  6
K5LT_THIN
 62
     0
370
    18
100
AcDbLine
 10
0.0
 20
0.0
 30
0.0
 11
2.0
 21
-0.0000000000000002
 31
0.0
  0
LINE
  5
5D
330
5A
100
AcDbEntity
  8
0 (1) (1)
  6
K5LT_THIN
 62
     0
370
    18
100
AcDbLine
 10
0.0
 20
0.0
 30
0.0
 11
-1.0
 21
0.0
 31
0.0
  0
ENDBLK
  5
5F
330
5A
100
AcDbEntity
  8
0
100
AcDbBlockEnd
  0
BLOCK
  5
64
330
60
100
AcDbEntity
  8
0
100
AcDbBlockBegin
  2
KDIMARROW_04
 70
     0
 10
0.0
 20
0.0
 30
0.0
  3
KDIMARROW_04
  1

  0
LWPOLYLINE
  5
61
330
60
100
AcDbEntity
  8
0
  6
K5LT_THIN
 62
     7
100
AcDbPolyline
 90
       15
 70
     0
 43
0.18
 10
-0.25
 20
0.0
 10
0.0
 20
-0.25
 10
0.25
 20
0.0
 10
0.0
 20
0.25
 10
-0.25
 20
0.0
 10
-0.5
 20
0.0000000000000001
 10
-0.0000000000000001
 20
-0.5
 10
0.5
 20
-0.0000000000000001
 10
0.0000000000000001
 20
0.5
 10
-0.5
 20
0.0000000000000001
 10
-0.75
 20
0.0000000000000001
 10
-0.0000000000000001
 20
-0.75
 10
0.75
 20
-0.0000000000000001
 10
0.0000000000000001
 20
0.75
 10
-0.75
 20
0.0000000000000001
  0
LWPOLYLINE
  5
62
330
60
100
AcDbEntity
  8
0
  6
K5LT_THIN
 62
     7
100
AcDbPolyline
 90
       15
 70
     0
 43
0.18
 10
-0.25
 20
0.0
 10
0.0
 20
-0.25
 10
0.25
 20
0.0
 10
0.0
 20
0.25
 10
-0.25
 20
0.0
 10
-0.5
 20
0.0000000000000001
 10
-0.0000000000000001
 20
-0.5
 10
0.5
 20
-0.0000000000000001
 10
0.0000000000000001
 20
0.5
 10
-0.5
 20
0.0000000000000001
 10
-0.75
 20
0.0000000000000001
 10
-0.0000000000000001
 20
-0.75
 10
0.75
 20
-0.0000000000000001
 10
0.0000000000000001
 20
0.75
 10
-0.75
 20
0.0000000000000001
  0
LINE
  5
63
330
60
100
AcDbEntity
  8
0 (1) (1)
  6
K5LT_THIN
 62
     0
370
    18
100
AcDbLine
 10
0.0
 20
0.0
 30
0.0
 11
-1.0
 21
0.0
 31
0.0
  0
ENDBLK
  5
65
330
60
100
AcDbEntity
  8
0
100
AcDbBlockEnd
  0
BLOCK
  5
6D
330
66
100
AcDbEntity
  8
0
100
AcDbBlockBegin
  2
KDIMARROW_05
 70
     0
 10
0.0
 20
0.0
 30
0.0
  3
KDIMARROW_05
  1

  0
LINE
  5
67
330
66
100
AcDbEntity
  8
0
  6
K5LT_THIN
 62
     0
370
    18
100
AcDbLine
 10
0.0
 20
0.0
 30
0.0
 11
-5.0
 21
-0.6582624912261956
 31
0.0
  0
LINE
  5
68
330
66
100
AcDbEntity
  8
0
  6
K5LT_THIN
 62
     0
370
    18
100
AcDbLine
 10
-5.0
 20
-0.6582624912261956
 30
0.0
 11
-5.0
 21
0.0000000000000006
 31
0.0
  0
LINE
  5
69
330
66
100
AcDbEntity
  8
0
  6
K5LT_THIN
 62
     0
370
    18
100
AcDbLine
 10
-5.0
 20
0.0000000000000006
 30
0.0
 11
-5.0
 21
0.658262491226197
 31
0.0
  0
LINE
  5
6A
330
66
100
AcDbEntity
  8
0
  6
K5LT_THIN
 62
     0
370
    18
100
AcDbLine
 10
-5.0
 20
0.658262491226197
 30
0.0
 11
0.0
 21
0.0
 31
0.0
  0
HATCH
  5
6B
330
66
100
AcDbEntity
  8
0
 62
     0
100
AcDbHatch
 10
0.0
 20
0.0
 30
0.0
210
0.0
220
0.0
230
1.0
  2
SOLID
 70
     1
 71
     0
 91
        1
 92
        1
 93
        4
 72
     1
 10
0.0
 20
0.0
 11
-5.0
 21
0.658262491226197
 72
     1
 10
-5.0
 20
0.658262491226197
 11
-5.0
 21
0.0000000000000007
 72
     1
 10
-5.0
 20
0.0000000000000006
 11
-5.0
 21
-0.6582624912261956
 72
     1
 10
-5.0
 20
-0.6582624912261956
 11
0.0
 21
0.0
 97
        0
 75
     0
 76
     1
 98
        0
  0
LINE
  5
6C
330
66
100
AcDbEntity
  8
0 (1) (1)
  6
K5LT_THIN
 62
     0
370
    18
100
AcDbLine
 10
0.0
 20
0.0
 30
0.0
 11
-1.0
 21
0.0
 31
0.0
  0
ENDBLK
  5
6E
330
66
100
AcDbEntity
  8
0
100
AcDbBlockEnd
  0
BLOCK
  5
77
330
6F
100
AcDbEntity
  8
0
100
AcDbBlockBegin
  2
KDIMARROW_06
 70
     0
 10
0.0
 20
0.0
 30
0.0
  3
KDIMARROW_06
  1

  0
LINE
  5
70
330
6F
100
AcDbEntity
  8
0
  6
K5LT_THIN
 62
     0
370
    18
100
AcDbLine
 10
0.0
 20
0.0
 30
0.0
 11
5.0
 21
-0.658262491226197
 31
0.0
  0
LINE
  5
71
330
6F
100
AcDbEntity
  8
0
  6
K5LT_THIN
 62
     0
370
    18
100
AcDbLine
 10
5.0
 20
-0.658262491226197
 30
0.0
 11
5.0
 21
-0.0000000000000006
 31
0.0
  0
LINE
  5
72
330
6F
100
AcDbEntity
  8
0
  6
K5LT_THIN
 62
     0
370
    18
100
AcDbLine
 10
5.0
 20
-0.0000000000000006
 30
0.0
 11
5.0
 21
0.6582624912261956
 31
0.0
  0
LINE
  5
73
330
6F
100
AcDbEntity
  8
0
  6
K5LT_THIN
 62
     0
370
    18
100
AcDbLine
 10
5.0
 20
0.6582624912261956
 30
0.0
 11
0.0
 21
0.0
 31
0.0
  0
LINE
  5
74
330
6F
100
AcDbEntity
  8
0
  6
K5LT_THIN
 62
     0
370
    18
100
AcDbLine
 10
0.0
 20
0.0
 30
0.0
 11
7.0
 21
-0.0000000000000009
 31
0.0
  0
HATCH
  5
75
330
6F
100
AcDbEntity
  8
0
 62
     0
100
AcDbHatch
 10
0.0
 20
0.0
 30
0.0
210
0.0
220
0.0
230
1.0
  2
SOLID
 70
     1
 71
     0
 91
        1
 92
        1
 93
        4
 72
     1
 10
5.0
 20
-0.0000000000000006
 11
5.0
 21
0.6582624912261956
 72
     1
 10
5.0
 20
0.6582624912261956
 11
0.0
 21
0.0
 72
     1
 10
0.0
 20
0.0
 11
5.0
 21
-0.658262491226197
 72
     1
 10
5.0
 20
-0.658262491226197
 11
5.0
 21
-0.0000000000000007
 97
        0
 75
     0
 76
     1
 98
        0
  0
LINE
  5
76
330
6F
100
AcDbEntity
  8
0 (1) (1)
  6
K5LT_THIN
 62
     0
370
    18
100
AcDbLine
 10
0.0
 20
0.0
 30
0.0
 11
-1.0
 21
0.0
 31
0.0
  0
ENDBLK
  5
78
330
6F
100
AcDbEntity
  8
0
100
AcDbBlockEnd
  0
BLOCK
  5
7D
330
79
100
AcDbEntity
  8
0
100
AcDbBlockBegin
  2
KDIMARROW_07
 70
     0
 10
0.0
 20
0.0
 30
0.0
  3
KDIMARROW_07
  1

  0
LINE
  5
7A
330
79
100
AcDbEntity
  8
0
  6
K5LT_THIN
 62
     0
370
    18
100
AcDbLine
 10
0.0
 20
0.0
 30
0.0
 11
-5.0
 21
-0.6582624912261956
 31
0.0
  0
LINE
  5
7B
330
79
100
AcDbEntity
  8
0
  6
K5LT_THIN
 62
     0
370
    18
100
AcDbLine
 10
0.0
 20
0.0
 30
0.0
 11
-5.0
 21
0.658262491226197
 31
0.0
  0
LINE
  5
7C
330
79
100
AcDbEntity
  8
0 (1) (1)
  6
K5LT_THIN
 62
     0
370
    18
100
AcDbLine
 10
0.0
 20
0.0
 30
0.0
 11
-1.0
 21
0.0
 31
0.0
  0
ENDBLK
  5
7E
330
79
100
AcDbEntity
  8
0
100
AcDbBlockEnd
  0
BLOCK
  5
84
330
7F
100
AcDbEntity
  8
0
100
AcDbBlockBegin
  2
KDIMARROW_08
 70
     0
 10
0.0
 20
0.0
 30
0.0
  3
KDIMARROW_08
  1

  0
LINE
  5
80
330
7F
100
AcDbEntity
  8
0
  6
K5LT_THIN
 62
     0
370
    18
100
AcDbLine
 10
0.0
 20
0.0
 30
0.0
 11
5.0
 21
-0.658262491226197
 31
0.0
  0
LINE
  5
81
330
7F
100
AcDbEntity
  8
0
  6
K5LT_THIN
 62
     0
370
    18
100
AcDbLine
 10
0.0
 20
0.0
 30
0.0
 11
5.0
 21
0.6582624912261956
 31
0.0
  0
LINE
  5
82
330
7F
100
AcDbEntity
  8
0
  6
K5LT_THIN
 62
     0
370
    18
100
AcDbLine
 10
0.0
 20
0.0
 30
0.0
 11
7.0
 21
-0.0000000000000009
 31
0.0
  0
LINE
  5
83
330
7F
100
AcDbEntity
  8
0 (1) (1)
  6
K5LT_THIN
 62
     0
370
    18
100
AcDbLine
 10
0.0
 20
0.0
 30
0.0
 11
-1.0
 21
0.0
 31
0.0
  0
ENDBLK
  5
85
330
7F
100
AcDbEntity
  8
0
100
AcDbBlockEnd
  0
BLOCK
  5
8A
330
86
100
AcDbEntity
  8
0
100
AcDbBlockBegin
  2
KDIMARROW_09
 70
     0
 10
0.0
 20
0.0
 30
0.0
  3
KDIMARROW_09
  1

  0
LINE
  5
87
330
86
100
AcDbEntity
  8
0
  6
K5LT_THIN
 62
     0
370
    18
100
AcDbLine
 10
0.0
 20
0.0
 30
0.0
 11
-2.0
 21
-2.0
 31
0.0
  0
LINE
  5
88
330
86
100
AcDbEntity
  8
0
  6
K5LT_THIN
 62
     0
370
    18
100
AcDbLine
 10
0.0
 20
0.0
 30
0.0
 11
-2.0
 21
2.0
 31
0.0
  0
LINE
  5
89
330
86
100
AcDbEntity
  8
0 (1) (1)
  6
K5LT_THIN
 62
     0
370
    18
100
AcDbLine
 10
0.0
 20
0.0
 30
0.0
 11
-1.0
 21
0.0
 31
0.0
  0
ENDBLK
  5
8B
330
86
100
AcDbEntity
  8
0
100
AcDbBlockEnd
  0
BLOCK
  5
91
330
8C
100
AcDbEntity
  8
0
100
AcDbBlockBegin
  2
KDIMARROW_10
 70
     0
 10
0.0
 20
0.0
 30
0.0
  3
KDIMARROW_10
  1

  0
LINE
  5
8D
330
8C
100
AcDbEntity
  8
0
  6
K5LT_THIN
 62
     0
370
    18
100
AcDbLine
 10
0.0
 20
0.0
 30
0.0
 11
2.0
 21
-2.0
 31
0.0
  0
LINE
  5
8E
330
8C
100
AcDbEntity
  8
0
  6
K5LT_THIN
 62
     0
370
    18
100
AcDbLine
 10
0.0
 20
0.0
 30
0.0
 11
2.0
 21
2.0
 31
0.0
  0
LINE
  5
8F
330
8C
100
AcDbEntity
  8
0
  6
K5LT_THIN
 62
     0
370
    18
100
AcDbLine
 10
0.0
 20
0.0
 30
0.0
 11
4.0
 21
-0.0000000000000005
 31
0.0
  0
LINE
  5
90
330
8C
100
AcDbEntity
  8
0 (1) (1)
  6
K5LT_THIN
 62
     0
370
    18
100
AcDbLine
 10
0.0
 20
0.0
 30
0.0
 11
-1.0
 21
0.0
 31
0.0
  0
ENDBLK
  5
92
330
8C
100
AcDbEntity
  8
0
100
AcDbBlockEnd
  0
BLOCK
  5
97
330
93
100
AcDbEntity
  8
0
100
AcDbBlockBegin
  2
KDIMARROW_11
 70
     0
 10
0.0
 20
0.0
 30
0.0
  3
KDIMARROW_11
  1

  0
CIRCLE
  5
94
330
93
100
AcDbEntity
  8
0
  6
K5LT_THIN
 62
     0
370
    18
100
AcDbCircle
 10
0.0
 20
0.0
 30
0.0
 40
2.5
  0
CIRCLE
  5
95
330
93
100
AcDbEntity
  8
0
  6
K5LT_THIN
 62
     0
370
    18
100
AcDbCircle
 10
0.0
 20
0.0
 30
0.0
 40
2.5
  0
LINE
  5
96
330
93
100
AcDbEntity
  8
0 (1) (1)
  6
K5LT_THIN
 62
     0
370
    18
100
AcDbLine
 10
0.0
 20
0.0
 30
0.0
 11
-1.0
 21
0.0
 31
0.0
  0
ENDBLK
  5
98
330
93
100
AcDbEntity
  8
0
100
AcDbBlockEnd
  0
BLOCK
  5
9D
330
99
100
AcDbEntity
  8
0
100
AcDbBlockBegin
  2
KDIMARROW_12
 70
     0
 10
0.0
 20
0.0
 30
0.0
  3
KDIMARROW_12
  1

  0
CIRCLE
  5
9A
330
99
100
AcDbEntity
  8
0
  6
K5LT_THIN
 62
     0
370
    18
100
AcDbCircle
 10
0.0
 20
0.0
 30
0.0
 40
1.5
  0
CIRCLE
  5
9B
330
99
100
AcDbEntity
  8
0
  6
K5LT_THIN
 62
     0
370
    18
100
AcDbCircle
 10
0.0
 20
0.0
 30
0.0
 40
1.5
  0
LINE
  5
9C
330
99
100
AcDbEntity
  8
0 (1) (1)
  6
K5LT_THIN
 62
     0
370
    18
100
AcDbLine
 10
0.0
 20
0.0
 30
0.0
 11
-1.0
 21
0.0
 31
0.0
  0
ENDBLK
  5
9E
330
99
100
AcDbEntity
  8
0
100
AcDbBlockEnd
  0
BLOCK
  5
A3
330
9F
100
AcDbEntity
  8
0
100
AcDbBlockBegin
  2
KDIMARROW_13
 70
     0
 10
0.0
 20
0.0
 30
0.0
  3
KDIMARROW_13
  1

  0
LINE
  5
A0
330
9F
100
AcDbEntity
  8
0
  6
K5LT_THIN
 62
     0
370
    18
100
AcDbLine
 10
-1.060500025749206
 20
1.060500025749207
 30
0.0
 11
1.060500025749206
 21
-1.060500025749207
 31
0.0
  0
LINE
  5
A1
330
9F
100
AcDbEntity
  8
0
  6
K5LT_THIN
 62
     0
370
    18
100
AcDbLine
 10
0.0
 20
0.0
 30
0.0
 11
2.0
 21
-0.0000000000000002
 31
0.0
  0
LINE
  5
A2
330
9F
100
AcDbEntity
  8
0 (1) (1)
  6
K5LT_THIN
 62
     0
370
    18
100
AcDbLine
 10
0.0
 20
0.0
 30
0.0
 11
-1.0
 21
0.0
 31
0.0
  0
ENDBLK
  5
A4
330
9F
100
AcDbEntity
  8
0
100
AcDbBlockEnd
  0
ENDSEC
  0
SECTION
  2
ENTITIES
  0
LINE
  5
A6
330
1F
100
AcDbEntity
  8
0 (1) (1)
  6
K5LT32768
 62
     5
420
      255
370
    60
100
AcDbLine
 10
-5.835786312549492
 20
27.25
 30
0.0
 11
-10.125
 21
31.53921317152062
 31
0.0
  0
LINE
  5
A7
330
1F
100
AcDbEntity
  8
0 (1) (1)
  6
K5LT32768
 62
     5
420
      255
370
    60
100
AcDbLine
 10
-5.800000190734862
 20
40.0
 30
0.0
 11
-17.0
 21
40.0
 31
0.0
  0
LINE
  5
A8
330
1F
100
AcDbEntity
  8
0 (1) (1)
  6
K5LT32768
 62
     5
420
      255
370
    60
100
AcDbLine
 10
-20.0
 20
37.0
 30
0.0
 11
-20.0
 21
25.80000019073486
 31
0.0
  0
LINE
  5
A9
330
1F
100
AcDbEntity
  8
0 (1) (1)
  6
K5LT32768
 62
     5
420
      255
370
    60
100
AcDbLine
 10
-14.49999987457576
 20
37.25
 30
0.0
 11
-14.49999987457576
 21
38.5
 31
0.0
  0
LINE
  5
AA
330
1F
100
AcDbEntity
  8
0 (1) (1)
  6
K5LT32768
 62
     5
420
      255
370
    60
100
AcDbLine
 10
-14.49999987457576
 20
38.5
 30
0.0
 11
-9.099999999999996
 21
38.5
 31
0.0
  0
LINE
  5
AB
330
1F
100
AcDbEntity
  8
0 (1) (1)
  6
K5LT32768
 62
     5
420
      255
370
    60
100
AcDbLine
 10
-9.099999999999996
 20
35.5
 30
0.0
 11
-10.74999974915153
 21
35.5
 31
0.0
  0
LINE
  5
AC
330
1F
100
AcDbEntity
  8
0 (1) (1)
  6
K5LT32768
 62
     5
420
      255
370
    60
100
AcDbLine
 10
5.500000000000002
 20
25.5
 30
0.0
 11
5.500000000000002
 21
22.56469168966699
 31
0.0
  0
LINE
  5
AD
330
1F
100
AcDbEntity
  8
0 (1) (1)
  6
K5LT32768
 62
     5
420
      255
370
    60
100
AcDbLine
 10
5.500000000000002
 20
17.43530831033301
 30
0.0
 11
5.500000000000002
 21
14.5
 31
0.0
  0
LINE
  5
AE
330
1F
100
AcDbEntity
  8
0 (1) (1)
  6
K5LT32768
 62
     5
420
      255
370
    60
100
AcDbLine
 10
5.500000000000002
 20
14.5
 30
0.0
 11
2.56469168966699
 21
14.5
 31
0.0
  0
LINE
  5
AF
330
1F
100
AcDbEntity
  8
0 (1) (1)
  6
K5LT32768
 62
     5
420
      255
370
    60
100
AcDbLine
 10
-2.564691689666989
 20
14.5
 30
0.0
 11
-5.499999999999998
 21
14.5
 31
0.0
  0
LINE
  5
B0
330
1F
100
AcDbEntity
  8
0 (1) (1)
  6
K5LT32768
 62
     5
420
      255
370
    60
100
AcDbLine
 10
-5.499999999999998
 20
14.5
 30
0.0
 11
-5.499999999999998
 21
17.43530831033301
 31
0.0
  0
LINE
  5
B1
330
1F
100
AcDbEntity
  8
0 (1) (1)
  6
K5LT32768
 62
     5
420
      255
370
    60
100
AcDbLine
 10
-5.499999999999998
 20
22.56469168966699
 30
0.0
 11
-5.499999999999998
 21
25.5
 31
0.0
  0
LINE
  5
B2
330
1F
100
AcDbEntity
  8
0 (1) (1)
  6
K5LT32768
 62
     5
420
      255
370
    60
100
AcDbLine
 10
-5.499999999999998
 20
25.5
 30
0.0
 11
-2.564691689666986
 21
25.5
 31
0.0
  0
LINE
  5
B3
330
1F
100
AcDbEntity
  8
0 (1) (1)
  6
K5LT32768
 62
     5
420
      255
370
    60
100
AcDbLine
 10
2.564691689666991
 20
25.5
 30
0.0
 11
5.500000000000002
 21
25.5
 31
0.0
  0
ARC
  5
B4
330
1F
100
AcDbEntity
  8
0 (1) (1)
  6
K5LT32768
 62
     5
420
      255
370
    60
100
AcDbCircle
 10
-17.0
 20
37.0
 30
0.0
 40
3.0
100
AcDbArc
 50
90.0
 51
180.0
  0
LINE
  5
B5
330
1F
100
AcDbEntity
  8
0 (1) (1)
  6
K5LT32768
 62
     5
420
      255
370
    60
100
AcDbLine
 10
5.800000190734877
 20
40.0
 30
0.0
 11
17.00000000000001
 21
39.99999999999999
 31
0.0
  0
ARC
  5
B6
330
1F
100
AcDbEntity
  8
0 (1) (1)
  6
K5LT32768
 62
     5
420
      255
370
    60
100
AcDbCircle
 10
17.00000000000001
 20
36.99999999999999
 30
0.0
 40
3.0
100
AcDbArc
 50
0.0
 51
90.0
  0
LINE
  5
B7
330
1F
100
AcDbEntity
  8
0 (1) (1)
  6
K5LT32768
 62
     5
420
      255
370
    60
100
AcDbLine
 10
20.00000000000001
 20
36.99999999999999
 30
0.0
 11
20.0
 21
25.80000019073485
 31
0.0
  0
LINE
  5
B9
330
1F
100
AcDbEntity
  8
0 (1) (1)
  6
K5LT32769
 62
     5
420
      255
370
    60
100
AcDbLine
 10
-9.824999999999998
 20
34.0
 30
0.0
 11
-5.100000000000009
 21
34.0
 31
0.0
  0
LINE
  5
BA
330
1F
100
AcDbEntity
  8
0 (1) (1)
  6
K5LT32769
 62
     5
420
      255
370
    60
100
AcDbLine
 10
-10.125
 20
31.53921317152061
 30
0.0
 11
-10.125
 21
33.7
 31
0.0
  0
LINE
  5
BB
330
1F
100
AcDbEntity
  8
0 (1) (1)
  6
K5LT32769
 62
     5
420
      255
370
    60
100
AcDbLine
 10
-5.099999999999997
 20
34.0
 30
0.0
 11
-5.099999999999997
 21
38.5
 31
0.0
  0
LINE
  5
BC
330
1F
100
AcDbEntity
  8
0 (1) (1)
  6
K5LT32769
 62
     5
420
      255
370
    60
100
AcDbLine
 10
-5.099999999999997
 20
38.5
 30
0.0
 11
-5.800000190734862
 21
38.5
 31
0.0
  0
LINE
  5
BD
330
1F
100
AcDbEntity
  8
0 (1) (1)
  6
K5LT32769
 62
     5
420
      255
370
    60
100
AcDbLine
 10
-5.800000190734862
 20
38.5
 30
0.0
 11
-5.800000190734862
 21
40.0
 31
0.0
  0
LINE
  5
BE
330
1F
100
AcDbEntity
  8
0 (1) (1)
  6
K5LT32769
 62
     5
420
      255
370
    60
100
AcDbLine
 10
5.100000000000001
 20
34.0
 30
0.0
 11
5.100000000000002
 21
38.5
 31
0.0
  0
LINE
  5
BF
330
1F
100
AcDbEntity
  8
0 (1) (1)
  6
K5LT32769
 62
     5
420
      255
370
    60
100
AcDbLine
 10
5.100000000000002
 20
38.5
 30
0.0
 11
5.799998283386253
 21
38.5
 31
0.0
  0
LINE
  5
C0
330
1F
100
AcDbEntity
  8
0 (1) (1)
  6
K5LT32769
 62
     5
420
      255
370
    60
100
AcDbLine
 10
5.799998283386253
 20
38.5
 30
0.0
 11
5.799998283386254
 21
40.0
 31
0.0
  0
LINE
  5
C1
330
1F
100
AcDbEntity
  8
0 (1) (1)
  6
K5LT32769
 62
     5
420
      255
370
    60
100
AcDbLine
 10
-4.96405233712674
 20
22.3147752278436
 30
0.0
 11
-5.499999999999998
 21
22.56469168966699
 31
0.0
  0
ARC
  5
C2
330
1F
100
AcDbEntity
  8
0 (1) (1)
  6
K5LT32769
 62
     5
420
      255
370
    60
100
AcDbCircle
 10
-5.175361441783247
 20
21.86162132210157
 30
0.0
 40
0.5000000000000003
100
AcDbArc
 50
340.2159122910447
 51
65.00000331441993
  0
ARC
  5
C3
330
1F
100
AcDbEntity
  8
0 (1) (1)
  6
K5LT32769
 62
     5
420
      255
370
    60
100
AcDbCircle
 10
0.0000000000000015
 20
20.0
 30
0.0
 40
4.999999999999999
100
AcDbArc
 50
160.2159122910447
 51
199.7840877089552
  0
ARC
  5
C4
330
1F
100
AcDbEntity
  8
0 (1) (1)
  6
K5LT32769
 62
     5
420
      255
370
    60
100
AcDbCircle
 10
-5.175361441783247
 20
18.13837867789843
 30
0.0
 40
0.5000000000000001
100
AcDbArc
 50
294.9999966855801
 51
19.78408770895535
  0
LINE
  5
C5
330
1F
100
AcDbEntity
  8
0 (1) (1)
  6
K5LT32769
 62
     5
420
      255
370
    60
100
AcDbLine
 10
-4.96405233712674
 20
17.6852247721564
 30
0.0
 11
-5.499999999999998
 21
17.43530831033301
 31
0.0
  0
LINE
  5
C6
330
1F
100
AcDbEntity
  8
0 (1) (1)
  6
K5LT32769
 62
     5
420
      255
370
    60
100
AcDbLine
 10
-2.3147752278436
 20
15.03594766287326
 30
0.0
 11
-2.564691689666989
 21
14.5
 31
0.0
  0
ARC
  5
C7
330
1F
100
AcDbEntity
  8
0 (1) (1)
  6
K5LT32769
 62
     5
420
      255
370
    60
100
AcDbCircle
 10
-1.861621322101568
 20
14.82463855821675
 30
0.0
 40
0.5000000000000004
100
AcDbArc
 50
70.21591229104465
 51
155.00000331442
  0
ARC
  5
C8
330
1F
100
AcDbEntity
  8
0 (1) (1)
  6
K5LT32769
 62
     5
420
      255
370
    60
100
AcDbCircle
 10
0.0000000000000015
 20
20.0
 30
0.0
 40
4.999999999999999
100
AcDbArc
 50
250.2159122910447
 51
289.7840877089552
  0
ARC
  5
C9
330
1F
100
AcDbEntity
  8
0 (1) (1)
  6
K5LT32769
 62
     5
420
      255
370
    60
100
AcDbCircle
 10
1.861621322101572
 20
14.82463855821675
 30
0.0
 40
0.5000000000000001
100
AcDbArc
 50
24.99999668558005
 51
109.7840877089554
  0
LINE
  5
CA
330
1F
100
AcDbEntity
  8
0 (1) (1)
  6
K5LT32769
 62
     5
420
      255
370
    60
100
AcDbLine
 10
2.314775227843601
 20
15.03594766287326
 30
0.0
 11
2.56469168966699
 21
14.5
 31
0.0
  0
LINE
  5
CB
330
1F
100
AcDbEntity
  8
0 (1) (1)
  6
K5LT32769
 62
     5
420
      255
370
    60
100
AcDbLine
 10
4.964052337126743
 20
17.6852247721564
 30
0.0
 11
5.500000000000002
 21
17.43530831033301
 31
0.0
  0
ARC
  5
CC
330
1F
100
AcDbEntity
  8
0 (1) (1)
  6
K5LT32769
 62
     5
420
      255
370
    60
100
AcDbCircle
 10
5.175361441783251
 20
18.13837867789843
 30
0.0
 40
0.5000000000000003
100
AcDbArc
 50
160.2159122910447
 51
245.00000331442
  0
ARC
  5
CD
330
1F
100
AcDbEntity
  8
0 (1) (1)
  6
K5LT32769
 62
     5
420
      255
370
    60
100
AcDbCircle
 10
0.0000000000000015
 20
20.0
 30
0.0
 40
4.999999999999999
100
AcDbArc
 50
340.2159122910447
 51
19.7840877089552
  0
ARC
  5
CE
330
1F
100
AcDbEntity
  8
0 (1) (1)
  6
K5LT32769
 62
     5
420
      255
370
    60
100
AcDbCircle
 10
5.175361441783251
 20
21.86162132210157
 30
0.0
 40
0.5
100
AcDbArc
 50
114.9999966855801
 51
199.7840877089553
  0
LINE
  5
CF
330
1F
100
AcDbEntity
  8
0 (1) (1)
  6
K5LT32769
 62
     5
420
      255
370
    60
100
AcDbLine
 10
4.964052337126743
 20
22.3147752278436
 30
0.0
 11
5.500000000000002
 21
22.56469168966699
 31
0.0
  0
LINE
  5
D0
330
1F
100
AcDbEntity
  8
0 (1) (1)
  6
K5LT32769
 62
     5
420
      255
370
    60
100
AcDbLine
 10
2.314775227843603
 20
24.96405233712674
 30
0.0
 11
2.564691689666991
 21
25.5
 31
0.0
  0
ARC
  5
D1
330
1F
100
AcDbEntity
  8
0 (1) (1)
  6
K5LT32769
 62
     5
420
      255
370
    60
100
AcDbCircle
 10
1.861621322101572
 20
25.17536144178325
 30
0.0
 40
0.4999999999999998
100
AcDbArc
 50
250.2159122910446
 51
335.0000033144198
  0
ARC
  5
D2
330
1F
100
AcDbEntity
  8
0 (1) (1)
  6
K5LT32769
 62
     5
420
      255
370
    60
100
AcDbCircle
 10
0.0000000000000015
 20
20.0
 30
0.0
 40
4.999999999999999
100
AcDbArc
 50
70.2159122910447
 51
109.7840877089552
  0
ARC
  5
D3
330
1F
100
AcDbEntity
  8
0 (1) (1)
  6
K5LT32769
 62
     5
420
      255
370
    60
100
AcDbCircle
 10
-1.861621322101567
 20
25.17536144178325
 30
0.0
 40
0.5
100
AcDbArc
 50
204.9999966855799
 51
289.7840877089554
  0
LINE
  5
D4
330
1F
100
AcDbEntity
  8
0 (1) (1)
  6
K5LT32769
 62
     5
420
      255
370
    60
100
AcDbLine
 10
-2.314775227843599
 20
24.96405233712674
 30
0.0
 11
-2.564691689666986
 21
25.5
 31
0.0
  0
ARC
  5
D5
330
1F
100
AcDbEntity
  8
0 (1) (1)
  6
K5LT32768
 62
     5
420
      255
370
    60
100
AcDbCircle
 10
-14.49999987457576
 20
34.49999987457576
 30
0.0
 40
2.75000012542424
100
AcDbArc
 50
90.0
 51
179.9999999999998
  0
ARC
  5
D6
330
1F
100
AcDbEntity
  8
0 (1) (1)
  6
K5LT32768
 62
     5
420
      255
370
    60
100
AcDbCircle
 10
-9.099999999999996
 20
37.0
 30
0.0
 40
1.5
100
AcDbArc
 50
270.0
 51
90.0
  0
LINE
  5
D7
330
1F
100
AcDbEntity
  8
0 (1) (1)
  6
K5LT32768
 62
     5
420
      255
370
    60
100
AcDbLine
 10
-17.25
 20
34.49999987457577
 30
0.0
 11
-18.5
 21
34.49999987457577
 31
0.0
  0
LINE
  5
D8
330
1F
100
AcDbEntity
  8
0 (1) (1)
  6
K5LT32768
 62
     5
420
      255
370
    60
100
AcDbLine
 10
-18.5
 20
34.49999987457577
 30
0.0
 11
-18.5
 21
29.1
 31
0.0
  0
LINE
  5
D9
330
1F
100
AcDbEntity
  8
0 (1) (1)
  6
K5LT32768
 62
     5
420
      255
370
    60
100
AcDbLine
 10
-15.5
 20
29.10000000000002
 30
0.0
 11
-15.50000000000001
 21
30.74999974915153
 31
0.0
  0
ARC
  5
DA
330
1F
100
AcDbEntity
  8
0 (1) (1)
  6
K5LT32768
 62
     5
420
      255
370
    60
100
AcDbCircle
 10
-14.49999987457576
 20
34.49999987457576
 30
0.0
 40
2.75000012542424
100
AcDbArc
 50
269.9999980836587
 51
0.0
  0
ARC
  5
DB
330
1F
100
AcDbEntity
  8
0 (1) (1)
  6
K5LT32768
 62
     5
420
      255
370
    60
100
AcDbCircle
 10
-10.74999974915153
 20
34.5
 30
0.0
 40
1.0
100
AcDbArc
 50
90.0
 51
180.000001916341
  0
ARC
  5
DC
330
1F
100
AcDbEntity
  8
0 (1) (1)
  6
K5LT32768
 62
     5
420
      255
370
    60
100
AcDbCircle
 10
-14.50000000000001
 20
30.74999974915153
 30
0.0
 40
1.000000000000001
100
AcDbArc
 50
89.99999808365871
 51
179.9999999999999
  0
ARC
  5
DD
330
1F
100
AcDbEntity
  8
0 (1) (1)
  6
K5LT32769
 62
     5
420
      255
370
    60
100
AcDbCircle
 10
-9.824999999999998
 20
33.7
 30
0.0
 40
0.3
100
AcDbArc
 50
90.0
 51
180.0
  0
LINE
  5
DE
330
1F
100
AcDbEntity
  8
0 (1) (1)
  6
K5LT32769
 62
     5
420
      255
370
    60
100
AcDbLine
 10
-0.000000953674322
 20
26.75
 30
0.0
 11
0.8660244501101191
 21
27.25
 31
0.0
  0
LINE
  5
DF
330
1F
100
AcDbEntity
  8
0 (1) (1)
  6
K5LT32769
 62
     5
420
      255
370
    60
100
AcDbLine
 10
-0.000000953674322
 20
26.75
 30
0.0
 11
-0.866026357458763
 21
27.25
 31
0.0
  0
LINE
  5
E0
330
1F
100
AcDbEntity
  8
0 (1) (1)
  6
K5LT32769
 62
     5
420
      255
370
    60
100
AcDbLine
 10
-0.866026357458763
 20
27.25
 30
0.0
 11
-5.835786312549492
 21
27.25
 31
0.0
  0
LINE
  5
E1
330
1F
100
AcDbEntity
  8
0 (1) (1)
  6
K5LT32768
 62
     5
420
      255
370
    60
100
AcDbLine
 10
5.835786312549496
 20
27.25
 30
0.0
 11
10.12500000000001
 21
31.53921317152061
 31
0.0
  0
LINE
  5
E2
330
1F
100
AcDbEntity
  8
0 (1) (1)
  6
K5LT32769
 62
     5
420
      255
370
    60
100
AcDbLine
 10
9.825000000000003
 20
34.0
 30
0.0
 11
5.100000000000014
 21
34.0
 31
0.0
  0
LINE
  5
E3
330
1F
100
AcDbEntity
  8
0 (1) (1)
  6
K5LT32769
 62
     5
420
      255
370
    60
100
AcDbLine
 10
10.125
 20
31.53921317152061
 30
0.0
 11
10.125
 21
33.7
 31
0.0
  0
ARC
  5
E4
330
1F
100
AcDbEntity
  8
0 (1) (1)
  6
K5LT32769
 62
     5
420
      255
370
    60
100
AcDbCircle
 10
9.825000000000003
 20
33.7
 30
0.0
 40
0.3
100
AcDbArc
 50
0.0
 51
90.0
  0
LINE
  5
E5
330
1F
100
AcDbEntity
  8
0 (1) (1)
  6
K5LT32769
 62
     5
420
      255
370
    60
100
AcDbLine
 10
0.866026357458767
 20
27.25
 30
0.0
 11
5.835786312549496
 21
27.25
 31
0.0
  0
LINE
  5
E6
330
1F
100
AcDbEntity
  8
0 (1) (1)
  6
K5LT32768
 62
     5
420
      255
370
    60
100
AcDbLine
 10
-5.835786312549492
 20
12.75
 30
0.0
 11
-10.56434029318255
 21
8.021446588143066
 31
0.0
  0
LINE
  5
E7
330
1F
100
AcDbEntity
  8
0 (1) (1)
  6
K5LT32769
 62
     5
420
      255
370
    60
100
AcDbLine
 10
-0.000000953674322
 20
13.25
 30
0.0
 11
0.8660244501101191
 21
12.75
 31
0.0
  0
LINE
  5
E8
330
1F
100
AcDbEntity
  8
0 (1) (1)
  6
K5LT32769
 62
     5
420
      255
370
    60
100
AcDbLine
 10
-0.000000953674322
 20
13.25
 30
0.0
 11
-0.866026357458763
 21
12.75
 31
0.0
  0
LINE
  5
E9
330
1F
100
AcDbEntity
  8
0 (1) (1)
  6
K5LT32769
 62
     5
420
      255
370
    60
100
AcDbLine
 10
-0.866026357458763
 20
12.75
 30
0.0
 11
-5.835786312549492
 21
12.75
 31
0.0
  0
LINE
  5
EA
330
1F
100
AcDbEntity
  8
0 (1) (1)
  6
K5LT32768
 62
     5
420
      255
370
    60
100
AcDbLine
 10
5.835786312549496
 20
12.75
 30
0.0
 11
10.56433872154253
 21
8.021448159782903
 31
0.0
  0
LINE
  5
EB
330
1F
100
AcDbEntity
  8
0 (1) (1)
  6
K5LT32769
 62
     5
420
      255
370
    60
100
AcDbLine
 10
0.866026357458767
 20
12.75
 30
0.0
 11
5.835786312549496
 21
12.75
 31
0.0
  0
LINE
  5
EC
330
1F
100
AcDbEntity
  8
0 (1) (1)
  6
K5LT32768
 62
     5
420
      255
370
    60
100
AcDbLine
 10
-7.249999999999998
 20
14.16421368745051
 30
0.0
 11
-11.53921317152062
 21
9.874999999999998
 31
0.0
  0
LINE
  5
ED
330
1F
100
AcDbEntity
  8
0 (1) (1)
  6
K5LT32769
 62
     5
420
      255
370
    60
100
AcDbLine
 10
-14.0
 20
10.175
 30
0.0
 11
-14.0
 21
14.89999999999999
 31
0.0
  0
LINE
  5
EE
330
1F
100
AcDbEntity
  8
0 (1) (1)
  6
K5LT32769
 62
     5
420
      255
370
    60
100
AcDbLine
 10
-11.53921317152061
 20
9.875
 30
0.0
 11
-13.7
 21
9.875
 31
0.0
  0
ARC
  5
EF
330
1F
100
AcDbEntity
  8
0 (1) (1)
  6
K5LT32769
 62
     5
420
      255
370
    60
100
AcDbCircle
 10
-13.7
 20
10.175
 30
0.0
 40
0.3
100
AcDbArc
 50
180.0
 51
270.0
  0
LINE
  5
F0
330
1F
100
AcDbEntity
  8
0 (1) (1)
  6
K5LT32769
 62
     5
420
      255
370
    60
100
AcDbLine
 10
-6.749999999999998
 20
19.99999904632568
 30
0.0
 11
-7.249999999999998
 21
20.86602445011012
 31
0.0
  0
LINE
  5
F1
330
1F
100
AcDbEntity
  8
0 (1) (1)
  6
K5LT32769
 62
     5
420
      255
370
    60
100
AcDbLine
 10
-6.749999999999998
 20
19.99999904632568
 30
0.0
 11
-7.249999999999998
 21
19.13397364254124
 31
0.0
  0
LINE
  5
F2
330
1F
100
AcDbEntity
  8
0 (1) (1)
  6
K5LT32769
 62
     5
420
      255
370
    60
100
AcDbLine
 10
-7.249999999999998
 20
19.13397364254124
 30
0.0
 11
-7.249999999999998
 21
14.16421368745051
 31
0.0
  0
LINE
  5
F3
330
1F
100
AcDbEntity
  8
0 (1) (1)
  6
K5LT32768
 62
     5
420
      255
370
    60
100
AcDbLine
 10
-7.249999999999997
 20
25.83578631254949
 30
0.0
 11
-11.53921317152061
 21
30.125
 31
0.0
  0
LINE
  5
F4
330
1F
100
AcDbEntity
  8
0 (1) (1)
  6
K5LT32769
 62
     5
420
      255
370
    60
100
AcDbLine
 10
-14.0
 20
29.825
 30
0.0
 11
-14.0
 21
25.10000000000001
 31
0.0
  0
LINE
  5
F5
330
1F
100
AcDbEntity
  8
0 (1) (1)
  6
K5LT32769
 62
     5
420
      255
370
    60
100
AcDbLine
 10
-11.53921317152061
 20
30.125
 30
0.0
 11
-13.7
 21
30.125
 31
0.0
  0
ARC
  5
F6
330
1F
100
AcDbEntity
  8
0 (1) (1)
  6
K5LT32769
 62
     5
420
      255
370
    60
100
AcDbCircle
 10
-13.7
 20
29.825
 30
0.0
 40
0.3
100
AcDbArc
 50
90.0
 51
180.0
  0
LINE
  5
F7
330
1F
100
AcDbEntity
  8
0 (1) (1)
  6
K5LT32769
 62
     5
420
      255
370
    60
100
AcDbLine
 10
-7.249999999999998
 20
20.86602635745876
 30
0.0
 11
-7.249999999999997
 21
25.83578631254949
 31
0.0
  0
LINE
  5
F8
330
1F
100
AcDbEntity
  8
0 (1) (1)
  6
K5LT32769
 62
     5
420
      255
370
    60
100
AcDbLine
 10
-14.0
 20
14.9
 30
0.0
 11
-18.5
 21
14.9
 31
0.0
  0
LINE
  5
F9
330
1F
100
AcDbEntity
  8
0 (1) (1)
  6
K5LT32769
 62
     5
420
      255
370
    60
100
AcDbLine
 10
-18.5
 20
14.9
 30
0.0
 11
-18.5
 21
14.19999980926514
 31
0.0
  0
LINE
  5
FA
330
1F
100
AcDbEntity
  8
0 (1) (1)
  6
K5LT32769
 62
     5
420
      255
370
    60
100
AcDbLine
 10
-18.5
 20
14.19999980926514
 30
0.0
 11
-20.0
 21
14.19999980926514
 31
0.0
  0
LINE
  5
FB
330
1F
100
AcDbEntity
  8
0 (1) (1)
  6
K5LT32769
 62
     5
420
      255
370
    60
100
AcDbLine
 10
-14.0
 20
25.1
 30
0.0
 11
-18.5
 21
25.1
 31
0.0
  0
LINE
  5
FC
330
1F
100
AcDbEntity
  8
0 (1) (1)
  6
K5LT32769
 62
     5
420
      255
370
    60
100
AcDbLine
 10
-18.5
 20
25.1
 30
0.0
 11
-18.5
 21
25.79999828338625
 31
0.0
  0
LINE
  5
FD
330
1F
100
AcDbEntity
  8
0 (1) (1)
  6
K5LT32769
 62
     5
420
      255
370
    60
100
AcDbLine
 10
-18.5
 20
25.79999828338625
 30
0.0
 11
-20.0
 21
25.79999828338625
 31
0.0
  0
LINE
  5
FE
330
1F
100
AcDbEntity
  8
0 (1) (1)
  6
K5LT32769
 62
     5
420
      255
370
    60
100
AcDbLine
 10
14.0
 20
14.9
 30
0.0
 11
18.5
 21
14.9
 31
0.0
  0
LINE
  5
FF
330
1F
100
AcDbEntity
  8
0 (1) (1)
  6
K5LT32769
 62
     5
420
      255
370
    60
100
AcDbLine
 10
18.5
 20
14.9
 30
0.0
 11
18.5
 21
14.19999980926514
 31
0.0
  0
LINE
  5
100
330
1F
100
AcDbEntity
  8
0 (1) (1)
  6
K5LT32769
 62
     5
420
      255
370
    60
100
AcDbLine
 10
18.5
 20
14.19999980926514
 30
0.0
 11
20.0
 21
14.19999980926514
 31
0.0
  0
LINE
  5
101
330
1F
100
AcDbEntity
  8
0 (1) (1)
  6
K5LT32769
 62
     5
420
      255
370
    60
100
AcDbLine
 10
14.0
 20
25.1
 30
0.0
 11
18.5
 21
25.1
 31
0.0
  0
LINE
  5
102
330
1F
100
AcDbEntity
  8
0 (1) (1)
  6
K5LT32769
 62
     5
420
      255
370
    60
100
AcDbLine
 10
18.5
 20
25.1
 30
0.0
 11
18.5
 21
25.79999828338625
 31
0.0
  0
LINE
  5
103
330
1F
100
AcDbEntity
  8
0 (1) (1)
  6
K5LT32769
 62
     5
420
      255
370
    60
100
AcDbLine
 10
18.5
 20
25.79999828338625
 30
0.0
 11
20.0
 21
25.79999828338625
 31
0.0
  0
LINE
  5
104
330
1F
100
AcDbEntity
  8
0 (1) (1)
  6
K5LT32768
 62
     5
420
      255
370
    60
100
AcDbLine
 10
7.250000000000002
 20
14.16421368745051
 30
0.0
 11
11.53921317152062
 21
9.874999999999998
 31
0.0
  0
LINE
  5
105
330
1F
100
AcDbEntity
  8
0 (1) (1)
  6
K5LT32769
 62
     5
420
      255
370
    60
100
AcDbLine
 10
14.0
 20
10.175
 30
0.0
 11
14.0
 21
14.89999999999999
 31
0.0
  0
LINE
  5
106
330
1F
100
AcDbEntity
  8
0 (1) (1)
  6
K5LT32769
 62
     5
420
      255
370
    60
100
AcDbLine
 10
11.53921317152062
 20
9.875
 30
0.0
 11
13.7
 21
9.875
 31
0.0
  0
ARC
  5
107
330
1F
100
AcDbEntity
  8
0 (1) (1)
  6
K5LT32769
 62
     5
420
      255
370
    60
100
AcDbCircle
 10
13.7
 20
10.175
 30
0.0
 40
0.3
100
AcDbArc
 50
270.0
 51
0.0
  0
LINE
  5
108
330
1F
100
AcDbEntity
  8
0 (1) (1)
  6
K5LT32769
 62
     5
420
      255
370
    60
100
AcDbLine
 10
6.750000000000002
 20
19.99999904632568
 30
0.0
 11
7.250000000000002
 21
20.86602445011012
 31
0.0
  0
LINE
  5
109
330
1F
100
AcDbEntity
  8
0 (1) (1)
  6
K5LT32769
 62
     5
420
      255
370
    60
100
AcDbLine
 10
6.750000000000002
 20
19.99999904632568
 30
0.0
 11
7.250000000000002
 21
19.13397364254124
 31
0.0
  0
LINE
  5
10A
330
1F
100
AcDbEntity
  8
0 (1) (1)
  6
K5LT32769
 62
     5
420
      255
370
    60
100
AcDbLine
 10
7.250000000000002
 20
19.13397364254124
 30
0.0
 11
7.250000000000002
 21
14.16421368745051
 31
0.0
  0
LINE
  5
10B
330
1F
100
AcDbEntity
  8
0 (1) (1)
  6
K5LT32768
 62
     5
420
      255
370
    60
100
AcDbLine
 10
7.250000000000001
 20
25.83578631254949
 30
0.0
 11
11.53921317152062
 21
30.125
 31
0.0
  0
LINE
  5
10C
330
1F
100
AcDbEntity
  8
0 (1) (1)
  6
K5LT32769
 62
     5
420
      255
370
    60
100
AcDbLine
 10
14.0
 20
29.825
 30
0.0
 11
14.0
 21
25.10000000000001
 31
0.0
  0
LINE
  5
10D
330
1F
100
AcDbEntity
  8
0 (1) (1)
  6
K5LT32769
 62
     5
420
      255
370
    60
100
AcDbLine
 10
11.53921317152062
 20
30.125
 30
0.0
 11
13.7
 21
30.125
 31
0.0
  0
ARC
  5
10E
330
1F
100
AcDbEntity
  8
0 (1) (1)
  6
K5LT32769
 62
     5
420
      255
370
    60
100
AcDbCircle
 10
13.7
 20
29.825
 30
0.0
 40
0.3
100
AcDbArc
 50
0.0
 51
90.0
  0
LINE
  5
10F
330
1F
100
AcDbEntity
  8
0 (1) (1)
  6
K5LT32769
 62
     5
420
      255
370
    60
100
AcDbLine
 10
7.250000000000002
 20
20.86602635745876
 30
0.0
 11
7.250000000000001
 21
25.83578631254949
 31
0.0
  0
LINE
  5
111
330
1F
100
AcDbEntity
  8
0 (1) (1)
  6
K5LT_BASIC
 62
     5
420
      255
370
    60
100
AcDbLine
 10
-20.0
 20
14.19999980926514
 30
0.0
 11
-20.0
 21
6.000000190734882
 31
0.0
  0
LINE
  5
112
330
1F
100
AcDbEntity
  8
0 (1) (1)
  6
K5LT_BASIC
 62
     5
420
      255
370
    60
100
AcDbLine
 10
20.0
 20
14.19999980926514
 30
0.0
 11
19.99999913629472
 21
6.000003069751638
 31
0.0
  0
ARC
  5
113
330
1F
100
AcDbEntity
  8
0 (1) (1)
  6
K5LT32768
 62
     5
420
      255
370
    60
100
AcDbCircle
 10
-17.0
 20
29.1
 30
0.0
 40
1.5
100
AcDbArc
 50
180.0
 51
0.0
  0
LINE
  5
114
330
1F
100
AcDbEntity
  8
0 (1) (1)
  6
K5LT32768
 62
     5
420
      255
370
    60
100
AcDbLine
 10
14.49999987457577
 20
37.25
 30
0.0
 11
14.49999987457577
 21
38.5
 31
0.0
  0
ARC
  5
115
330
1F
100
AcDbEntity
  8
0 (1) (1)
  6
K5LT32768
 62
     5
420
      255
370
    60
100
AcDbCircle
 10
14.49999987457577
 20
34.49999987457576
 30
0.0
 40
2.75000012542424
100
AcDbArc
 50
0.0
 51
90.0
  0
LINE
  5
116
330
1F
100
AcDbEntity
  8
0 (1) (1)
  6
K5LT32768
 62
     5
420
      255
370
    60
100
AcDbLine
 10
17.25
 20
34.49999987457576
 30
0.0
 11
18.5
 21
34.49999987457576
 31
0.0
  0
LINE
  5
117
330
1F
100
AcDbEntity
  8
0 (1) (1)
  6
K5LT32768
 62
     5
420
      255
370
    60
100
AcDbLine
 10
18.5
 20
34.49999987457576
 30
0.0
 11
18.5
 21
29.09999999999999
 31
0.0
  0
ARC
  5
118
330
1F
100
AcDbEntity
  8
0 (1) (1)
  6
K5LT32768
 62
     5
420
      255
370
    60
100
AcDbCircle
 10
14.49999987457577
 20
34.49999987457576
 30
0.0
 40
2.75000012542424
100
AcDbArc
 50
180.0
 51
270.0000019163413
  0
ARC
  5
119
330
1F
100
AcDbEntity
  8
0 (1) (1)
  6
K5LT32768
 62
     5
420
      255
370
    60
100
AcDbCircle
 10
10.74999974915153
 20
34.5
 30
0.0
 40
1.0
100
AcDbArc
 50
0.0
 51
90.0
  0
ARC
  5
11A
330
1F
100
AcDbEntity
  8
0 (1) (1)
  6
K5LT32768
 62
     5
420
      255
370
    60
100
AcDbCircle
 10
14.50000000000001
 20
30.74999974915153
 30
0.0
 40
1.000000000000001
100
AcDbArc
 50
0.0
 51
90.00000191634129
  0
LINE
  5
11B
330
1F
100
AcDbEntity
  8
0 (1) (1)
  6
K5LT32768
 62
     5
420
      255
370
    60
100
AcDbLine
 10
14.49999987457577
 20
38.5
 30
0.0
 11
9.100000000000005
 21
38.5
 31
0.0
  0
LINE
  5
11C
330
1F
100
AcDbEntity
  8
0 (1) (1)
  6
K5LT32768
 62
     5
420
      255
370
    60
100
AcDbLine
 10
9.100000000000005
 20
35.5
 30
0.0
 11
10.74999974915154
 21
35.5
 31
0.0
  0
ARC
  5
11D
330
1F
100
AcDbEntity
  8
0 (1) (1)
  6
K5LT32768
 62
     5
420
      255
370
    60
100
AcDbCircle
 10
9.100000000000005
 20
37.0
 30
0.0
 40
1.5
100
AcDbArc
 50
90.0
 51
270.0
  0
LINE
  5
11E
330
1F
100
AcDbEntity
  8
0 (1) (1)
  6
K5LT32768
 62
     5
420
      255
370
    60
100
AcDbLine
 10
15.5
 20
29.10000000000001
 30
0.0
 11
15.50000000000001
 21
30.74999974915152
 31
0.0
  0
ARC
  5
11F
330
1F
100
AcDbEntity
  8
0 (1) (1)
  6
K5LT32768
 62
     5
420
      255
370
    60
100
AcDbCircle
 10
17.0
 20
29.09999999999999
 30
0.0
 40
1.5
100
AcDbArc
 50
180.0
 51
0.0
  0
LINE
  5
121
330
1F
100
AcDbEntity
  8
0 (1) (1)
  6
K5LT32770
 62
     5
420
      255
370
    60
100
AcDbLine
 10
-19.0
 20
-5.999999809265118
 30
0.0
 11
-19.0
 21
6.000000190734882
 31
0.0
  0
LINE
  5
122
330
1F
100
AcDbEntity
  8
0 (1) (1)
  6
K5LT32770
 62
     5
420
      255
370
    60
100
AcDbLine
 10
-19.0
 20
-5.999999809265118
 30
0.0
 11
-20.0
 21
-5.999999809265118
 31
0.0
  0
LINE
  5
123
330
1F
100
AcDbEntity
  8
0 (1) (1)
  6
K5LT32770
 62
     5
420
      255
370
    60
100
AcDbLine
 10
-19.0
 20
6.000000190734882
 30
0.0
 11
-20.0
 21
6.000000190734882
 31
0.0
  0
LINE
  5
124
330
1F
100
AcDbEntity
  8
0 (1) (1)
  6
K5LT32770
 62
     5
420
      255
370
    60
100
AcDbLine
 10
19.00000086370482
 20
-5.999997074199078
 30
0.0
 11
19.00000086370482
 21
6.000002925800922
 31
0.0
  0
LINE
  5
125
330
1F
100
AcDbEntity
  8
0 (1) (1)
  6
K5LT32770
 62
     5
420
      255
370
    60
100
AcDbLine
 10
19.00000086370482
 20
-5.999997074199078
 30
0.0
 11
20.00000086370481
 21
-5.999996930248238
 31
0.0
  0
LINE
  5
126
330
1F
100
AcDbEntity
  8
0 (1) (1)
  6
K5LT32770
 62
     5
420
      255
370
    60
100
AcDbLine
 10
18.99999913629473
 20
6.000002925800797
 30
0.0
 11
19.99999913629472
 21
6.000003069751638
 31
0.0
  0
LINE
  5
127
330
1F
100
AcDbEntity
  8
0 (1) (1)
  6
K5LT32768
 62
     5
420
      255
370
    60
100
AcDbLine
 10
-5.835772493916183
 20
-27.25000295935748
 30
0.0
 11
-10.12498400628134
 21
-31.53921830596261
 31
0.0
  0
LINE
  5
128
330
1F
100
AcDbEntity
  8
0 (1) (1)
  6
K5LT32768
 62
     5
420
      255
370
    60
100
AcDbLine
 10
-5.799979906502838
 20
-40.00000294120849
 30
0.0
 11
-16.99997971576654
 21
-40.00000862079315
 31
0.0
  0
LINE
  5
129
330
1F
100
AcDbEntity
  8
0 (1) (1)
  6
K5LT32768
 62
     5
420
      255
370
    60
100
AcDbLine
 10
-19.9999812370835
 20
-37.00001014211089
 30
0.0
 11
-19.99998691666816
 21
-25.80001033284719
 31
0.0
  0
LINE
  5
12A
330
1F
100
AcDbEntity
  8
0 (1) (1)
  6
K5LT32768
 62
     5
420
      255
370
    60
100
AcDbLine
 10
-14.49998098488352
 20
-37.25000735302899
 30
0.0
 11
-14.49998035100129
 21
-38.50000735302883
 31
0.0
  0
LINE
  5
12B
330
1F
100
AcDbEntity
  8
0 (1) (1)
  6
K5LT32768
 62
     5
420
      255
370
    60
100
AcDbLine
 10
-14.49998035100129
 20
-38.50000735302883
 30
0.0
 11
-9.099980476426222
 21
-38.50000461465767
 31
0.0
  0
LINE
  5
12C
330
1F
100
AcDbEntity
  8
0 (1) (1)
  6
K5LT32768
 62
     5
420
      255
370
    60
100
AcDbLine
 10
-9.099981997743567
 20
-35.50000461465805
 30
0.0
 11
-10.74998174689489
 21
-35.50000545138247
 31
0.0
  0
LINE
  5
12D
330
1F
100
AcDbEntity
  8
0 (1) (1)
  6
K5LT32768
 62
     5
420
      255
370
    60
100
AcDbLine
 10
5.500012931196736
 20
-25.49999721091492
 30
0.0
 11
5.50001144268492
 21
-22.56468890058229
 31
0.0
  0
LINE
  5
12E
330
1F
100
AcDbEntity
  8
0 (1) (1)
  6
K5LT32768
 62
     5
420
      255
370
    60
100
AcDbLine
 10
5.50000884154495
 20
-17.43530552124897
 30
0.0
 11
5.500007353033134
 21
-14.49999721091634
 31
0.0
  0
LINE
  5
12F
330
1F
100
AcDbEntity
  8
0 (1) (1)
  6
K5LT32768
 62
     5
420
      255
370
    60
100
AcDbLine
 10
5.500007353033134
 20
-14.49999721091634
 30
0.0
 11
2.5646990427005
 21
-14.49999869942815
 31
0.0
  0
LINE
  5
130
330
1F
100
AcDbEntity
  8
0 (1) (1)
  6
K5LT32768
 62
     5
420
      255
370
    60
100
AcDbLine
 10
-2.56468433663282
 20
-14.50000130056812
 30
0.0
 11
-5.499992646965453
 21
-14.50000278907994
 31
0.0
  0
LINE
  5
131
330
1F
100
AcDbEntity
  8
0 (1) (1)
  6
K5LT32768
 62
     5
420
      255
370
    60
100
AcDbLine
 10
-5.499992646965453
 20
-14.50000278907994
 30
0.0
 11
-5.499991158453637
 21
-17.43531109941257
 31
0.0
  0
LINE
  5
132
330
1F
100
AcDbEntity
  8
0 (1) (1)
  6
K5LT32768
 62
     5
420
      255
370
    60
100
AcDbLine
 10
-5.499988557313668
 20
-22.56469447874589
 30
0.0
 11
-5.499987068801852
 21
-25.50000278907853
 31
0.0
  0
LINE
  5
133
330
1F
100
AcDbEntity
  8
0 (1) (1)
  6
K5LT32768
 62
     5
420
      255
370
    60
100
AcDbLine
 10
-5.499987068801852
 20
-25.50000278907853
 30
0.0
 11
-2.564678758469217
 21
-25.50000130056671
 31
0.0
  0
LINE
  5
134
330
1F
100
AcDbEntity
  8
0 (1) (1)
  6
K5LT32768
 62
     5
420
      255
370
    60
100
AcDbLine
 10
2.564704620864102
 20
-25.49999869942674
 30
0.0
 11
5.500012931196736
 21
-25.49999721091492
 31
0.0
  0
ARC
  5
135
330
1F
100
AcDbEntity
  8
0 (1) (1)
  6
K5LT32768
 62
     5
420
      255
370
    60
100
AcDbCircle
 10
-16.99998123708388
 20
-37.00000862079354
 30
0.0
 40
3.000000000000001
100
AcDbArc
 50
180.000029055021
 51
270.0000290550212
  0
LINE
  5
136
330
1F
100
AcDbEntity
  8
0 (1) (1)
  6
K5LT32768
 62
     5
420
      255
370
    60
100
AcDbLine
 10
5.80002047496541
 20
-39.99999705878123
 30
0.0
 11
17.00002028422911
 21
-39.99999137919656
 31
0.0
  0
ARC
  5
137
330
1F
100
AcDbEntity
  8
0 (1) (1)
  6
K5LT32768
 62
     5
420
      255
370
    60
100
AcDbCircle
 10
17.00001876291176
 20
-36.99999137919694
 30
0.0
 40
3.000000000000001
100
AcDbArc
 50
270.0000290550212
 51
0.0
  0
LINE
  5
138
330
1F
100
AcDbEntity
  8
0 (1) (1)
  6
K5LT32768
 62
     5
420
      255
370
    60
100
AcDbLine
 10
20.00001876291137
 20
-36.99998985787959
 30
0.0
 11
20.0000130833267
 21
-25.7999900486159
 31
0.0
  0
LINE
  5
139
330
1F
100
AcDbEntity
  8
0 (1) (1)
  6
K5LT32769
 62
     5
420
      255
370
    60
100
AcDbLine
 10
-9.824982758402149
 20
-34.00000498230994
 30
0.0
 11
-5.099982758402766
 21
-34.00000258623512
 31
0.0
  0
LINE
  5
13A
330
1F
100
AcDbEntity
  8
0 (1) (1)
  6
K5LT32769
 62
     5
420
      255
370
    60
100
AcDbLine
 10
-10.12498400628134
 20
-31.53921830596261
 30
0.0
 11
-10.12498291053384
 21
-33.70000513444172
 31
0.0
  0
LINE
  5
13B
330
1F
100
AcDbEntity
  8
0 (1) (1)
  6
K5LT32769
 62
     5
420
      255
370
    60
100
AcDbLine
 10
-5.099982758402755
 20
-34.00000258623512
 30
0.0
 11
-5.099980476426736
 21
-38.50000258623454
 31
0.0
  0
LINE
  5
13C
330
1F
100
AcDbEntity
  8
0 (1) (1)
  6
K5LT32769
 62
     5
420
      255
370
    60
100
AcDbLine
 10
-5.099980476426736
 20
-38.50000258623454
 30
0.0
 11
-5.799980667161511
 21
-38.50000294120868
 31
0.0
  0
LINE
  5
13D
330
1F
100
AcDbEntity
  8
0 (1) (1)
  6
K5LT32769
 62
     5
420
      255
370
    60
100
AcDbLine
 10
-5.799980667161511
 20
-38.50000294120868
 30
0.0
 11
-5.799979906502838
 21
-40.00000294120849
 31
0.0
  0
LINE
  5
13E
330
1F
100
AcDbEntity
  8
0 (1) (1)
  6
K5LT32769
 62
     5
420
      255
370
    60
100
AcDbLine
 10
5.100017241595932
 20
-33.99999741375614
 30
0.0
 11
5.100019523571953
 21
-38.49999741375557
 31
0.0
  0
LINE
  5
13F
330
1F
100
AcDbEntity
  8
0 (1) (1)
  6
K5LT32769
 62
     5
420
      255
370
    60
100
AcDbLine
 10
5.100019523571953
 20
-38.49999741375557
 30
0.0
 11
5.800017806958113
 21
-38.49999705878239
 31
0.0
  0
LINE
  5
140
330
1F
100
AcDbEntity
  8
0 (1) (1)
  6
K5LT32769
 62
     5
420
      255
370
    60
100
AcDbLine
 10
5.800017806958113
 20
-38.49999705878239
 30
0.0
 11
5.800018567616787
 21
-39.9999970587822
 31
0.0
  0
LINE
  5
141
330
1F
100
AcDbEntity
  8
0 (1) (1)
  6
K5LT32769
 62
     5
420
      255
370
    60
100
AcDbLine
 10
-4.964041021174561
 20
-22.31477774514038
 30
0.0
 11
-5.499988557313668
 21
-22.56469447874589
 31
0.0
  0
ARC
  5
142
330
1F
100
AcDbEntity
  8
0 (1) (1)
  6
K5LT32769
 62
     5
420
      255
370
    60
100
AcDbCircle
 10
-5.175350355628007
 20
-21.86162394655447
 30
0.0
 40
0.5000000000000004
100
AcDbArc
 50
295.0000257406012
 51
19.7841167639764
  0
ARC
  5
143
330
1F
100
AcDbEntity
  8
0 (1) (1)
  6
K5LT32769
 62
     5
420
      255
370
    60
100
AcDbCircle
 10
0.000010142115641
 20
-19.99999999999743
 30
0.0
 40
5.0
100
AcDbArc
 50
160.2159413460658
 51
199.7841167639763
  0
ARC
  5
144
330
1F
100
AcDbEntity
  8
0 (1) (1)
  6
K5LT32769
 62
     5
420
      255
370
    60
100
AcDbCircle
 10
-5.17535224370588
 20
-18.13838130235181
 30
0.0
 40
0.5000000000000002
100
AcDbArc
 50
340.2159413460657
 51
65.00003236944102
  0
LINE
  5
145
330
1F
100
AcDbEntity
  8
0 (1) (1)
  6
K5LT32769
 62
     5
420
      255
370
    60
100
AcDbLine
 10
-4.964043368846364
 20
-17.68522728945377
 30
0.0
 11
-5.499991158453637
 21
-17.43531109941257
 31
0.0
  0
LINE
  5
146
330
1F
100
AcDbEntity
  8
0 (1) (1)
  6
K5LT32769
 62
     5
420
      255
370
    60
100
AcDbLine
 10
-2.314767603027305
 20
-15.03594883670723
 30
0.0
 11
-2.56468433663282
 21
-14.50000130056812
 31
0.0
  0
ARC
  5
147
330
1F
100
AcDbEntity
  8
0 (1) (1)
  6
K5LT32769
 62
     5
420
      255
370
    60
100
AcDbCircle
 10
-1.861613804441401
 20
-14.82463950225378
 30
0.0
 40
0.5000000000000006
100
AcDbArc
 50
205.0000257406011
 51
289.7841167639764
  0
ARC
  5
148
330
1F
100
AcDbEntity
  8
0 (1) (1)
  6
K5LT32769
 62
     5
420
      255
370
    60
100
AcDbCircle
 10
0.000010142115641
 20
-19.99999999999743
 30
0.0
 40
5.0
100
AcDbArc
 50
70.21594134606589
 51
109.7841167639764
  0
ARC
  5
149
330
1F
100
AcDbEntity
  8
0 (1) (1)
  6
K5LT32769
 62
     5
420
      255
370
    60
100
AcDbCircle
 10
1.861628839761261
 20
-14.82463761417591
 30
0.0
 40
0.5000000000000002
100
AcDbArc
 50
250.2159413460657
 51
335.000032369441
  0
LINE
  5
14A
330
1F
100
AcDbEntity
  8
0 (1) (1)
  6
K5LT32769
 62
     5
420
      255
370
    60
100
AcDbLine
 10
2.314782852659301
 20
-15.03594648903543
 30
0.0
 11
2.5646990427005
 21
-14.49999869942815
 31
0.0
  0
LINE
  5
14B
330
1F
100
AcDbEntity
  8
0 (1) (1)
  6
K5LT32769
 62
     5
420
      255
370
    60
100
AcDbLine
 10
4.964061305405843
 20
-17.68522225485449
 30
0.0
 11
5.50000884154495
 21
-17.43530552124897
 31
0.0
  0
ARC
  5
14C
330
1F
100
AcDbEntity
  8
0 (1) (1)
  6
K5LT32769
 62
     5
420
      255
370
    60
100
AcDbCircle
 10
5.175370639859289
 20
-18.13837605344039
 30
0.0
 40
0.5000000000000004
100
AcDbArc
 50
115.0000257406012
 51
199.7841167639763
  0
ARC
  5
14D
330
1F
100
AcDbEntity
  8
0 (1) (1)
  6
K5LT32769
 62
     5
420
      255
370
    60
100
AcDbCircle
 10
0.000010142115641
 20
-19.99999999999743
 30
0.0
 40
5.0
100
AcDbArc
 50
340.2159413460659
 51
19.7841167639764
  0
ARC
  5
14E
330
1F
100
AcDbEntity
  8
0 (1) (1)
  6
K5LT32769
 62
     5
420
      255
370
    60
100
AcDbCircle
 10
5.175372527937162
 20
-21.86161869764305
 30
0.0
 40
0.5000000000000001
100
AcDbArc
 50
160.2159413460658
 51
245.000032369441
  0
LINE
  5
14F
330
1F
100
AcDbEntity
  8
0 (1) (1)
  6
K5LT32769
 62
     5
420
      255
370
    60
100
AcDbLine
 10
4.964063653077647
 20
-22.31477271054109
 30
0.0
 11
5.50001144268492
 21
-22.56468890058229
 31
0.0
  0
LINE
  5
150
330
1F
100
AcDbEntity
  8
0 (1) (1)
  6
K5LT32769
 62
     5
420
      255
370
    60
100
AcDbLine
 10
2.314787887258587
 20
-24.96405116328763
 30
0.0
 11
2.564704620864102
 21
-25.49999869942674
 31
0.0
  0
ARC
  5
151
330
1F
100
AcDbEntity
  8
0 (1) (1)
  6
K5LT32769
 62
     5
420
      255
370
    60
100
AcDbCircle
 10
1.861634088672684
 20
-25.17536049774108
 30
0.0
 40
0.4999999999999999
100
AcDbArc
 50
25.00002574060126
 51
109.7841167639765
  0
ARC
  5
152
330
1F
100
AcDbEntity
  8
0 (1) (1)
  6
K5LT32769
 62
     5
420
      255
370
    60
100
AcDbCircle
 10
0.000010142115641
 20
-19.99999999999743
 30
0.0
 40
5.0
100
AcDbArc
 50
250.2159413460659
 51
289.7841167639764
  0
ARC
  5
153
330
1F
100
AcDbEntity
  8
0 (1) (1)
  6
K5LT32769
 62
     5
420
      255
370
    60
100
AcDbCircle
 10
-1.861608555529978
 20
-25.17536238581895
 30
0.0
 40
0.5000000000000001
100
AcDbArc
 50
70.21594134606569
 51
155.0000323694411
  0
LINE
  5
154
330
1F
100
AcDbEntity
  8
0 (1) (1)
  6
K5LT32769
 62
     5
420
      255
370
    60
100
AcDbLine
 10
-2.314762568428019
 20
-24.96405351095943
 30
0.0
 11
-2.564678758469217
 21
-25.50000130056671
 31
0.0
  0
ARC
  5
155
330
1F
100
AcDbEntity
  8
0 (1) (1)
  6
K5LT32768
 62
     5
420
      255
370
    60
100
AcDbCircle
 10
-14.49998237942448
 20
-34.5000072276051
 30
0.0
 40
2.75000012542424
100
AcDbArc
 50
180.0000290550212
 51
270.0000290550212
  0
ARC
  5
156
330
1F
100
AcDbEntity
  8
0 (1) (1)
  6
K5LT32768
 62
     5
420
      255
370
    60
100
AcDbCircle
 10
-9.099981237084894
 20
-37.00000461465786
 30
0.0
 40
1.5
100
AcDbArc
 50
270.0000290550212
 51
90.00002905502109
  0
LINE
  5
157
330
1F
100
AcDbEntity
  8
0 (1) (1)
  6
K5LT32768
 62
     5
420
      255
370
    60
100
AcDbLine
 10
-17.24998250484837
 20
-34.50000862214608
 30
0.0
 11
-18.49998250484821
 21
-34.50000925602831
 31
0.0
  0
LINE
  5
158
330
1F
100
AcDbEntity
  8
0 (1) (1)
  6
K5LT32768
 62
     5
420
      255
370
    60
100
AcDbLine
 10
-18.49998250484821
 20
-34.50000925602831
 30
0.0
 11
-18.49998524321936
 21
-29.10000938145323
 31
0.0
  0
LINE
  5
159
330
1F
100
AcDbEntity
  8
0 (1) (1)
  6
K5LT32768
 62
     5
420
      255
370
    60
100
AcDbLine
 10
-15.49998524321975
 20
-29.1000078601359
 30
0.0
 11
-15.49998440649535
 21
-30.7500076092872
 31
0.0
  0
ARC
  5
15A
330
1F
100
AcDbEntity
  8
0 (1) (1)
  6
K5LT32768
 62
     5
420
      255
370
    60
100
AcDbCircle
 10
-14.49998237942448
 20
-34.5000072276051
 30
0.0
 40
2.75000012542424
100
AcDbArc
 50
0.0000290550210899
 51
90.00003097136238
  0
ARC
  5
15B
330
1F
100
AcDbEntity
  8
0 (1) (1)
  6
K5LT32768
 62
     5
420
      255
370
    60
100
AcDbCircle
 10
-10.74998225400067
 20
-34.5000054513826
 30
0.0
 40
1.0
100
AcDbArc
 50
180.0000271386799
 51
270.0000290550212
  0
ARC
  5
15C
330
1F
100
AcDbEntity
  8
0 (1) (1)
  6
K5LT32768
 62
     5
420
      255
370
    60
100
AcDbCircle
 10
-14.49998440649548
 20
-30.75000710218141
 30
0.0
 40
1.000000000000001
100
AcDbArc
 50
180.0000290550211
 51
270.0000309713624
  0
ARC
  5
15D
330
1F
100
AcDbEntity
  8
0 (1) (1)
  6
K5LT32769
 62
     5
420
      255
370
    60
100
AcDbCircle
 10
-9.824982910533883
 20
-33.70000498230998
 30
0.0
 40
0.3
100
AcDbArc
 50
180.000029055021
 51
270.0000290550212
  0
LINE
  5
15E
330
1F
100
AcDbEntity
  8
0 (1) (1)
  6
K5LT32769
 62
     5
420
      255
370
    60
100
AcDbLine
 10
0.0000126114053459
 20
-26.74999999999705
 30
0.0
 11
0.8660382687425667
 21
-27.2499995608305
 31
0.0
  0
LINE
  5
15F
330
1F
100
AcDbEntity
  8
0 (1) (1)
  6
K5LT32769
 62
     5
420
      255
370
    60
100
AcDbLine
 10
0.0000126114053459
 20
-26.74999999999705
 30
0.0
 11
-0.8660125388260929
 21
-27.25000043916348
 31
0.0
  0
LINE
  5
160
330
1F
100
AcDbEntity
  8
0 (1) (1)
  6
K5LT32769
 62
     5
420
      255
370
    60
100
AcDbLine
 10
-0.8660125388260929
 20
-27.25000043916348
 30
0.0
 11
-5.835772493916183
 21
-27.25000295935748
 31
0.0
  0
LINE
  5
161
330
1F
100
AcDbEntity
  8
0 (1) (1)
  6
K5LT32768
 62
     5
420
      255
370
    60
100
AcDbLine
 10
5.835800131181306
 20
-27.24999704063552
 30
0.0
 11
10.12501599371606
 21
-31.53920803707052
 31
0.0
  0
LINE
  5
162
330
1F
100
AcDbEntity
  8
0 (1) (1)
  6
K5LT32769
 62
     5
420
      255
370
    60
100
AcDbLine
 10
9.82501724159533
 20
-33.99999501768132
 30
0.0
 11
5.100017241595945
 21
-33.99999741375614
 31
0.0
  0
LINE
  5
163
330
1F
100
AcDbEntity
  8
0 (1) (1)
  6
K5LT32769
 62
     5
420
      255
370
    60
100
AcDbLine
 10
10.12501599371606
 20
-31.53920803707052
 30
0.0
 11
10.12501708946356
 21
-33.69999486554963
 31
0.0
  0
ARC
  5
164
330
1F
100
AcDbEntity
  8
0 (1) (1)
  6
K5LT32769
 62
     5
420
      255
370
    60
100
AcDbCircle
 10
9.825017089463595
 20
-33.69999501768136
 30
0.0
 40
0.3
100
AcDbArc
 50
270.0000290550211
 51
0.0
  0
LINE
  5
165
330
1F
100
AcDbEntity
  8
0 (1) (1)
  6
K5LT32769
 62
     5
420
      255
370
    60
100
AcDbLine
 10
0.8660401760912146
 20
-27.24999956082953
 30
0.0
 11
5.835800131181306
 21
-27.24999704063552
 31
0.0
  0
LINE
  5
166
330
1F
100
AcDbEntity
  8
0 (1) (1)
  6
K5LT32769
 62
     5
420
      255
370
    60
100
AcDbLine
 10
0.0000057654772892
 20
-13.24999999999878
 30
0.0
 11
0.866030915708728
 21
-12.74999956083236
 31
0.0
  0
LINE
  5
167
330
1F
100
AcDbEntity
  8
0 (1) (1)
  6
K5LT32769
 62
     5
420
      255
370
    60
100
AcDbLine
 10
0.0000057654772892
 20
-13.24999999999878
 30
0.0
 11
-0.8660198918599316
 21
-12.75000043916534
 31
0.0
  0
LINE
  5
168
330
1F
100
AcDbEntity
  8
0 (1) (1)
  6
K5LT32769
 62
     5
420
      255
370
    60
100
AcDbLine
 10
-0.8660198918599316
 20
-12.75000043916534
 30
0.0
 11
-5.835779846950022
 21
-12.75000295935934
 31
0.0
  0
LINE
  5
169
330
1F
100
AcDbEntity
  8
0 (1) (1)
  6
K5LT32769
 62
     5
420
      255
370
    60
100
AcDbLine
 10
0.8660328230573759
 20
-12.74999956083139
 30
0.0
 11
5.835792778147467
 21
-12.74999704063738
 31
0.0
  0
LINE
  5
16A
330
1F
100
AcDbEntity
  8
0 (1) (1)
  6
K5LT32768
 62
     5
420
      255
370
    60
100
AcDbLine
 10
-7.249992817244409
 20
-14.16421736396561
 30
0.0
 11
-11.53920816384954
 21
-9.875005851600449
 31
0.0
  0
LINE
  5
16B
330
1F
100
AcDbEntity
  8
0 (1) (1)
  6
K5LT32769
 62
     5
420
      255
370
    60
100
AcDbLine
 10
-13.99999484019687
 20
-10.17500709947964
 30
0.0
 11
-13.99999244412205
 21
-14.90000709947903
 31
0.0
  0
LINE
  5
16C
330
1F
100
AcDbEntity
  8
0 (1) (1)
  6
K5LT32769
 62
     5
420
      255
370
    60
100
AcDbLine
 10
-11.53920816384954
 20
-9.87500585160045
 30
0.0
 11
-13.69999499232864
 21
-9.875006947347945
 31
0.0
  0
ARC
  5
16D
330
1F
100
AcDbEntity
  8
0 (1) (1)
  6
K5LT32769
 62
     5
420
      255
370
    60
100
AcDbCircle
 10
-13.69999484019691
 20
-10.17500694734791
 30
0.0
 40
0.3
100
AcDbArc
 50
90.00002905502105
 51
180.000029055021
  0
LINE
  5
16E
330
1F
100
AcDbEntity
  8
0 (1) (1)
  6
K5LT32769
 62
     5
420
      255
370
    60
100
AcDbLine
 10
-6.749989857883976
 20
-20.00000246928714
 30
0.0
 11
-7.249989418717421
 21
-20.86602812662436
 31
0.0
  0
LINE
  5
16F
330
1F
100
AcDbEntity
  8
0 (1) (1)
  6
K5LT32769
 62
     5
420
      255
370
    60
100
AcDbLine
 10
-6.749989857883976
 20
-20.00000246928714
 30
0.0
 11
-7.249990297050401
 21
-19.1339773190557
 31
0.0
  0
LINE
  5
170
330
1F
100
AcDbEntity
  8
0 (1) (1)
  6
K5LT32769
 62
     5
420
      255
370
    60
100
AcDbLine
 10
-7.249990297050401
 20
-19.1339773190557
 30
0.0
 11
-7.249992817244409
 21
-14.16421736396561
 31
0.0
  0
LINE
  5
171
330
1F
100
AcDbEntity
  8
0 (1) (1)
  6
K5LT32768
 62
     5
420
      255
370
    60
100
AcDbLine
 10
-7.249986898522445
 20
-25.83578998906309
 30
0.0
 11
-11.53919789495745
 21
-30.12500585159785
 31
0.0
  0
LINE
  5
172
330
1F
100
AcDbEntity
  8
0 (1) (1)
  6
K5LT32769
 62
     5
420
      255
370
    60
100
AcDbLine
 10
-13.99998487556825
 20
-29.82500709947712
 30
0.0
 11
-13.99998727164307
 21
-25.10000709947773
 31
0.0
  0
LINE
  5
173
330
1F
100
AcDbEntity
  8
0 (1) (1)
  6
K5LT32769
 62
     5
420
      255
370
    60
100
AcDbLine
 10
-11.53919789495745
 20
-30.12500585159785
 30
0.0
 11
-13.69998472343655
 21
-30.12500694734534
 31
0.0
  0
ARC
  5
174
330
1F
100
AcDbEntity
  8
0 (1) (1)
  6
K5LT32769
 62
     5
420
      255
370
    60
100
AcDbCircle
 10
-13.69998487556829
 20
-29.82500694734539
 30
0.0
 40
0.3
100
AcDbArc
 50
180.0000290550211
 51
270.0000290550212
  0
LINE
  5
175
330
1F
100
AcDbEntity
  8
0 (1) (1)
  6
K5LT32769
 62
     5
420
      255
370
    60
100
AcDbLine
 10
-7.249989418716454
 20
-20.866030033973
 30
0.0
 11
-7.249986898522445
 21
-25.83578998906309
 31
0.0
  0
LINE
  5
176
330
1F
100
AcDbEntity
  8
0 (1) (1)
  6
K5LT32769
 62
     5
420
      255
370
    60
100
AcDbLine
 10
-13.99999244412205
 20
-14.90000709947904
 30
0.0
 11
-18.49999244412147
 21
-14.90000938145505
 31
0.0
  0
LINE
  5
177
330
1F
100
AcDbEntity
  8
0 (1) (1)
  6
K5LT32769
 62
     5
420
      255
370
    60
100
AcDbLine
 10
-18.49999244412147
 20
-14.90000938145505
 30
0.0
 11
-18.49999279909562
 21
-14.20000919072028
 31
0.0
  0
LINE
  5
178
330
1F
100
AcDbEntity
  8
0 (1) (1)
  6
K5LT32769
 62
     5
420
      255
370
    60
100
AcDbLine
 10
-18.49999279909562
 20
-14.20000919072028
 30
0.0
 11
-19.99999279909542
 21
-14.20000995137895
 31
0.0
  0
LINE
  5
179
330
1F
100
AcDbEntity
  8
0 (1) (1)
  6
K5LT32769
 62
     5
420
      255
370
    60
100
AcDbLine
 10
-13.99998727164307
 20
-25.10000709947772
 30
0.0
 11
-18.4999872716425
 21
-25.10000938145374
 31
0.0
  0
LINE
  5
17A
330
1F
100
AcDbEntity
  8
0 (1) (1)
  6
K5LT32769
 62
     5
420
      255
370
    60
100
AcDbLine
 10
-18.4999872716425
 20
-25.10000938145374
 30
0.0
 11
-18.49998691666932
 21
-25.8000076648399
 31
0.0
  0
LINE
  5
17B
330
1F
100
AcDbEntity
  8
0 (1) (1)
  6
K5LT32769
 62
     5
420
      255
370
    60
100
AcDbLine
 10
-18.49998691666932
 20
-25.8000076648399
 30
0.0
 11
-19.99998691666913
 21
-25.80000842549858
 31
0.0
  0
LINE
  5
17C
330
1F
100
AcDbEntity
  8
0 (1) (1)
  6
K5LT32769
 62
     5
420
      255
370
    60
100
AcDbLine
 10
14.00000755587436
 20
-14.89999290051714
 30
0.0
 11
18.50000755587378
 21
-14.89999061854112
 31
0.0
  0
LINE
  5
17D
330
1F
100
AcDbEntity
  8
0 (1) (1)
  6
K5LT32769
 62
     5
420
      255
370
    60
100
AcDbLine
 10
18.50000755587378
 20
-14.89999061854112
 30
0.0
 11
18.50000720089963
 21
-14.19999042780635
 31
0.0
  0
LINE
  5
17E
330
1F
100
AcDbEntity
  8
0 (1) (1)
  6
K5LT32769
 62
     5
420
      255
370
    60
100
AcDbLine
 10
18.50000720089963
 20
-14.19999042780635
 30
0.0
 11
20.00000720089944
 21
-14.19998966714767
 31
0.0
  0
LINE
  5
17F
330
1F
100
AcDbEntity
  8
0 (1) (1)
  6
K5LT32769
 62
     5
420
      255
370
    60
100
AcDbLine
 10
14.00001272835333
 20
-25.09999290051583
 30
0.0
 11
18.50001272835275
 21
-25.09999061853981
 31
0.0
  0
LINE
  5
180
330
1F
100
AcDbEntity
  8
0 (1) (1)
  6
K5LT32769
 62
     5
420
      255
370
    60
100
AcDbLine
 10
18.50001272835275
 20
-25.09999061853981
 30
0.0
 11
18.50001308332593
 21
-25.79998890192597
 31
0.0
  0
LINE
  5
181
330
1F
100
AcDbEntity
  8
0 (1) (1)
  6
K5LT32769
 62
     5
420
      255
370
    60
100
AcDbLine
 10
18.50001308332593
 20
-25.79998890192597
 30
0.0
 11
20.00001308332574
 21
-25.7999881412673
 31
0.0
  0
LINE
  5
182
330
1F
100
AcDbEntity
  8
0 (1) (1)
  6
K5LT32768
 62
     5
420
      255
370
    60
100
AcDbLine
 10
7.250007182753728
 20
-14.16421001093177
 30
0.0
 11
11.53921817918873
 21
-9.874994148397011
 31
0.0
  0
LINE
  5
183
330
1F
100
AcDbEntity
  8
0 (1) (1)
  6
K5LT32769
 62
     5
420
      255
370
    60
100
AcDbLine
 10
14.00000515979954
 20
-10.17499290051775
 30
0.0
 11
14.00000755587436
 21
-14.89999290051713
 31
0.0
  0
LINE
  5
184
330
1F
100
AcDbEntity
  8
0 (1) (1)
  6
K5LT32769
 62
     5
420
      255
370
    60
100
AcDbLine
 10
11.53921817918873
 20
-9.874994148397013
 30
0.0
 11
13.70000500766784
 21
-9.874993052649518
 31
0.0
  0
ARC
  5
185
330
1F
100
AcDbEntity
  8
0 (1) (1)
  6
K5LT32769
 62
     5
420
      255
370
    60
100
AcDbCircle
 10
13.70000515979957
 20
-10.17499305264948
 30
0.0
 40
0.3
100
AcDbArc
 50
0.0
 51
90.00002905502105
  0
LINE
  5
186
330
1F
100
AcDbEntity
  8
0 (1) (1)
  6
K5LT32769
 62
     5
420
      255
370
    60
100
AcDbLine
 10
6.750010142114291
 20
-19.99999562335908
 30
0.0
 11
7.250010581280716
 21
-20.86602077359052
 31
0.0
  0
LINE
  5
187
330
1F
100
AcDbEntity
  8
0 (1) (1)
  6
K5LT32769
 62
     5
420
      255
370
    60
100
AcDbLine
 10
6.750010142114291
 20
-19.99999562335908
 30
0.0
 11
7.250009702947736
 21
-19.13396996602186
 31
0.0
  0
LINE
  5
188
330
1F
100
AcDbEntity
  8
0 (1) (1)
  6
K5LT32769
 62
     5
420
      255
370
    60
100
AcDbLine
 10
7.250009702947736
 20
-19.13396996602186
 30
0.0
 11
7.250007182753728
 21
-14.16421001093177
 31
0.0
  0
LINE
  5
189
330
1F
100
AcDbEntity
  8
0 (1) (1)
  6
K5LT32768
 62
     5
420
      255
370
    60
100
AcDbLine
 10
7.25001310147569
 20
-25.83578263602926
 30
0.0
 11
11.53922844808082
 21
-30.12499414839442
 31
0.0
  0
LINE
  5
18A
330
1F
100
AcDbEntity
  8
0 (1) (1)
  6
K5LT32769
 62
     5
420
      255
370
    60
100
AcDbLine
 10
14.00001512442815
 20
-29.82499290051523
 30
0.0
 11
14.00001272835333
 21
-25.09999290051584
 31
0.0
  0
LINE
  5
18B
330
1F
100
AcDbEntity
  8
0 (1) (1)
  6
K5LT32769
 62
     5
420
      255
370
    60
100
AcDbLine
 10
11.53922844808082
 20
-30.12499414839441
 30
0.0
 11
13.70001527655992
 21
-30.12499305264692
 31
0.0
  0
ARC
  5
18C
330
1F
100
AcDbEntity
  8
0 (1) (1)
  6
K5LT32769
 62
     5
420
      255
370
    60
100
AcDbCircle
 10
13.70001512442819
 20
-29.82499305264696
 30
0.0
 40
0.3
100
AcDbArc
 50
270.0000290550212
 51
0.0
  0
LINE
  5
18D
330
1F
100
AcDbEntity
  8
0 (1) (1)
  6
K5LT32769
 62
     5
420
      255
370
    60
100
AcDbLine
 10
7.250010581281683
 20
-20.86602268093917
 30
0.0
 11
7.25001310147569
 21
-25.83578263602926
 31
0.0
  0
ARC
  5
18E
330
1F
100
AcDbEntity
  8
0 (1) (1)
  6
K5LT32768
 62
     5
420
      255
370
    60
100
AcDbCircle
 10
-16.99998524321956
 20
-29.10000862079456
 30
0.0
 40
1.5
100
AcDbArc
 50
0.0
 51
180.000029055021
  0
LINE
  5
18F
330
1F
100
AcDbEntity
  8
0 (1) (1)
  6
K5LT32768
 62
     5
420
      255
370
    60
100
AcDbLine
 10
14.50001876426428
 20
-37.24999264696145
 30
0.0
 11
14.50001939814651
 21
-38.49999264696128
 31
0.0
  0
ARC
  5
190
330
1F
100
AcDbEntity
  8
0 (1) (1)
  6
K5LT32768
 62
     5
420
      255
370
    60
100
AcDbCircle
 10
14.50001736972332
 20
-34.49999252153755
 30
0.0
 40
2.75000012542424
100
AcDbArc
 50
270.0000290550211
 51
0.0
  0
LINE
  5
191
330
1F
100
AcDbEntity
  8
0 (1) (1)
  6
K5LT32768
 62
     5
420
      255
370
    60
100
AcDbLine
 10
17.2500174951472
 20
-34.49999112699659
 30
0.0
 11
18.50001749514704
 21
-34.49999049311436
 31
0.0
  0
LINE
  5
192
330
1F
100
AcDbEntity
  8
0 (1) (1)
  6
K5LT32768
 62
     5
420
      255
370
    60
100
AcDbLine
 10
18.50001749514704
 20
-34.49999049311436
 30
0.0
 11
18.50001475677588
 21
-29.09999061853929
 31
0.0
  0
ARC
  5
193
330
1F
100
AcDbEntity
  8
0 (1) (1)
  6
K5LT32768
 62
     5
420
      255
370
    60
100
AcDbCircle
 10
14.50001736972332
 20
-34.49999252153755
 30
0.0
 40
2.75000012542424
100
AcDbArc
 50
90.00002713867974
 51
180.000029055021
  0
ARC
  5
194
330
1F
100
AcDbEntity
  8
0 (1) (1)
  6
K5LT32768
 62
     5
420
      255
370
    60
100
AcDbCircle
 10
10.75001724429963
 20
-34.49999454860853
 30
0.0
 40
1.0
100
AcDbArc
 50
270.0000290550211
 51
0.0
  0
ARC
  5
195
330
1F
100
AcDbEntity
  8
0 (1) (1)
  6
K5LT32768
 62
     5
420
      255
370
    60
100
AcDbCircle
 10
14.50001559350082
 20
-30.74999239611374
 30
0.0
 40
1.000000000000001
100
AcDbArc
 50
270.0000271386797
 51
0.0
  0
LINE
  5
196
330
1F
100
AcDbEntity
  8
0 (1) (1)
  6
K5LT32768
 62
     5
420
      255
370
    60
100
AcDbLine
 10
14.50001939814651
 20
-38.49999264696128
 30
0.0
 11
9.100019523571442
 21
-38.49999538533244
 31
0.0
  0
LINE
  5
197
330
1F
100
AcDbEntity
  8
0 (1) (1)
  6
K5LT32768
 62
     5
420
      255
370
    60
100
AcDbLine
 10
9.100018002254096
 20
-35.49999538533282
 30
0.0
 11
10.75001775140542
 21
-35.49999454860841
 31
0.0
  0
ARC
  5
198
330
1F
100
AcDbEntity
  8
0 (1) (1)
  6
K5LT32768
 62
     5
420
      255
370
    60
100
AcDbCircle
 10
9.10001876291277
 20
-36.99999538533263
 30
0.0
 40
1.5
100
AcDbArc
 50
90.00002905502105
 51
270.0000290550211
  0
LINE
  5
199
330
1F
100
AcDbEntity
  8
0 (1) (1)
  6
K5LT32768
 62
     5
420
      255
370
    60
100
AcDbLine
 10
15.50001475677627
 20
-29.09999213985665
 30
0.0
 11
15.50001559350069
 21
-30.74999188900795
 31
0.0
  0
ARC
  5
19A
330
1F
100
AcDbEntity
  8
0 (1) (1)
  6
K5LT32768
 62
     5
420
      255
370
    60
100
AcDbCircle
 10
17.00001475677607
 20
-29.09999137919796
 30
0.0
 40
1.5
100
AcDbArc
 50
0.0000290550210899
 51
180.0000290550211
  0
LINE
  5
19B
330
1F
100
AcDbEntity
  8
0 (1) (1)
  6
K5LT_BASIC
 62
     5
420
      255
370
    60
100
AcDbLine
 10
-19.99999279909542
 20
-14.20000995137895
 30
0.0
 11
-19.99999695736264
 21
-6.000010332849751
 31
0.0
  0
LINE
  5
19C
330
1F
100
AcDbEntity
  8
0 (1) (1)
  6
K5LT_BASIC
 62
     5
420
      255
370
    60
100
AcDbLine
 10
20.00000720089944
 20
-14.19998966714767
 30
0.0
 11
20.0000021789284
 21
-5.999992927635665
 31
0.0
  0
LINE
  5
19D
330
1F
100
AcDbEntity
  8
0 (1) (1)
  6
K5LT_BASIC
 62
     5
420
      255
370
    60
100
AcDbLine
 10
-16.99999473716219
 20
-7.375012131275308
 30
0.0
 11
-17.0
 21
7.375
 31
0.0
  0
LINE
  5
19E
330
1F
100
AcDbEntity
  8
0 (1) (1)
  6
K5LT_BASIC
 62
     5
420
      255
370
    60
100
AcDbLine
 10
-16.5
 20
7.875
 30
0.0
 11
-10.91789366251216
 21
7.875
 31
0.0
  0
LINE
  5
19F
330
1F
100
AcDbEntity
  8
0 (1) (1)
  6
K5LT_BASIC
 62
     5
420
      255
370
    60
100
AcDbLine
 10
17.00000420119323
 20
-7.374990243910493
 30
0.0
 11
16.99999893836237
 21
7.375002447164217
 31
0.0
  0
LINE
  5
1A0
330
1F
100
AcDbEntity
  8
0 (1) (1)
  6
K5LT_BASIC
 62
     5
420
      255
370
    60
100
AcDbLine
 10
16.49999886638696
 20
7.875002375188793
 30
0.0
 11
10.91789216284756
 21
7.875001571639839
 31
0.0
  0
ARC
  5
1A1
330
1F
100
AcDbEntity
  8
0 (1) (1)
  6
K5LT_BASIC
 62
     5
420
      255
370
    60
100
AcDbCircle
 10
-16.5
 20
7.375
 30
0.0
 40
0.5
100
AcDbArc
 50
90.0
 51
180.0
  0
ARC
  5
1A2
330
1F
100
AcDbEntity
  8
0 (1) (1)
  6
K5LT_BASIC
 62
     5
420
      255
370
    60
100
AcDbCircle
 10
-10.91789366251216
 20
8.375
 30
0.0
 40
0.5
100
AcDbArc
 50
270.0
 51
314.9999965540762
  0
ARC
  5
1A3
330
1F
100
AcDbEntity
  8
0 (1) (1)
  6
K5LT32768
 62
     5
420
      255
370
    60
100
AcDbCircle
 10
10.91789209087214
 20
8.375001571639835
 30
0.0
 40
0.5
100
AcDbArc
 50
225.0000034459239
 51
270.0000082477757
  0
ARC
  5
1A4
330
1F
100
AcDbEntity
  8
0 (1) (1)
  6
K5LT_BASIC
 62
     5
420
      255
370
    60
100
AcDbCircle
 10
16.49999893836238
 20
7.375002375188799
 30
0.0
 40
0.5
100
AcDbArc
 50
0.0
 51
90.00000824777572
  0
LINE
  5
1A5
330
1F
100
AcDbEntity
  8
0 (1) (1)
  6
K5LT_BASIC
 62
     5
420
      255
370
    60
100
AcDbLine
 10
-16.49999438036005
 20
-7.87501177447291
 30
0.0
 11
-10.91788804287363
 21
-7.875007791056484
 31
0.0
  0
ARC
  5
1A6
330
1F
100
AcDbEntity
  8
0 (1) (1)
  6
K5LT_BASIC
 62
     5
420
      255
370
    60
100
AcDbCircle
 10
-16.49999473716231
 20
-7.375011774473037
 30
0.0
 40
0.5
100
AcDbArc
 50
180.0000408865284
 51
270.0000408865284
  0
ARC
  5
1A7
330
1F
100
AcDbEntity
  8
0 (1) (1)
  6
K5LT_BASIC
 62
     5
420
      255
370
    60
100
AcDbCircle
 10
-10.91788768607136
 20
-8.375007791056357
 30
0.0
 40
0.5
100
AcDbArc
 50
45.00004433245216
 51
90.00004088652838
  0
LINE
  5
1A8
330
1F
100
AcDbEntity
  8
0 (1) (1)
  6
K5LT_BASIC
 62
     5
420
      255
370
    60
100
AcDbLine
 10
16.50000448602021
 20
-7.874990600712683
 30
0.0
 11
10.91789778248166
 21
-7.874993780580416
 31
0.0
  0
ARC
  5
1A9
330
1F
100
AcDbEntity
  8
0 (1) (1)
  6
K5LT32768
 62
     5
420
      255
370
    60
100
AcDbCircle
 10
10.91789806730851
 20
-8.374993780580336
 30
0.0
 40
0.5
100
AcDbArc
 50
90.00003263875266
 51
135.0000374406045
  0
ARC
  5
1AA
330
1F
100
AcDbEntity
  8
0 (1) (1)
  6
K5LT_BASIC
 62
     5
420
      255
370
    60
100
AcDbCircle
 10
16.50000420119336
 20
-7.374990600712763
 30
0.0
 40
0.5
100
AcDbArc
 50
270.0000326387527
 51
0.0
  0
LINE
  5
1AB
330
1F
100
AcDbEntity
  8
0 (1) (1)
  6
K5LT32768
 62
     5
420
      255
370
    60
100
AcDbLine
 10
-5.835777214090117
 20
-12.75000416444036
 30
0.0
 11
-10.56433456903916
 21
-8.021454126902222
 31
0.0
  0
LINE
  5
1AC
330
1F
100
AcDbEntity
  8
0 (1) (1)
  6
K5LT32768
 62
     5
420
      255
370
    60
100
AcDbLine
 10
5.8357954110059
 20
-12.74999583555315
 30
0.0
 11
10.56434444568167
 21
-8.021440621020783
 31
0.0
  0
ENDSEC
  0
SECTION
  2
OBJECTS
  0
DICTIONARY
  5
C
330
0
100
AcDbDictionary
281
     1
  3
ACAD_GROUP
350
D
  3
ACAD_LAYOUT
350
1A
  3
ACAD_MATERIAL
350
3B
  3
ACAD_MLEADERSTYLE
350
1F2
  3
ACAD_MLINESTYLE
350
17
  3
ACAD_PLOTSETTINGS
350
19
  3
ACAD_PLOTSTYLENAME
350
E
  3
ACAD_SCALELIST
350
1AD
  3
ACAD_TABLESTYLE
350
1F1
  3
ACAD_VISUALSTYLE
350
2A
  3
AcDbVariableDictionary
350
1CF
  0
DICTIONARY
  5
D
102
{ACAD_REACTORS
330
C
102
}
330
C
100
AcDbDictionary
281
     1
  0
DICTIONARY
  5
1A
102
{ACAD_REACTORS
330
C
102
}
330
C
100
AcDbDictionary
281
     1
  3
Layout1
350
1E
  3
Layout2
350
26
  3
Model
350
22
  0
DICTIONARY
  5
3B
102
{ACAD_REACTORS
330
C
102
}
330
C
100
AcDbDictionary
281
     1
  3
ByBlock
350
3D
  3
ByLayer
350
3C
  3
Global
350
3E
  0
DICTIONARY
  5
1F2
102
{ACAD_REACTORS
330
C
102
}
330
C
100
AcDbDictionary
281
     1
  0
DICTIONARY
  5
17
102
{ACAD_REACTORS
330
C
102
}
330
C
100
AcDbDictionary
281
     1
  3
Standard
350
18
  0
DICTIONARY
  5
19
102
{ACAD_REACTORS
330
C
102
}
330
C
100
AcDbDictionary
281
     1
  0
ACDBDICTIONARYWDFLT
  5
E
102
{ACAD_REACTORS
330
C
102
}
330
C
100
AcDbDictionary
281
     1
  3
Normal
350
F
100
AcDbDictionaryWithDefault
340
F
  0
DICTIONARY
  5
1AD
102
{ACAD_REACTORS
330
C
102
}
330
C
100
AcDbDictionary
281
     1
  3
A0
350
1AE
  3
A1
350
1AF
  3
A2
350
1B0
  3
A3
350
1B1
  3
A4
350
1B2
  3
A5
350
1B3
  3
A6
350
1B4
  3
A7
350
1B5
  3
A8
350
1B6
  3
A9
350
1B7
  3
B0
350
1B8
  3
B1
350
1B9
  3
B2
350
1BA
  3
B3
350
1BB
  3
B4
350
1BC
  3
B5
350
1BD
  3
B6
350
1BE
  3
B7
350
1BF
  3
B8
350
1C0
  3
B9
350
1C1
  3
C0
350
1C2
  3
C1
350
1C3
  3
C2
350
1C4
  3
C3
350
1C5
  3
C4
350
1C6
  3
C5
350
1C7
  3
C6
350
1C8
  3
C7
350
1C9
  3
C8
350
1CA
  3
C9
350
1CB
  3
D0
350
1CC
  3
D1
350
1CD
  3
D2
350
1CE
  0
DICTIONARY
  5
1F1
102
{ACAD_REACTORS
330
C
102
}
330
C
100
AcDbDictionary
281
     1
  0
DICTIONARY
  5
2A
102
{ACAD_REACTORS
330
C
102
}
330
C
100
AcDbDictionary
281
     1
  3
2dWireframe
350
2F
  3
3D Hidden
350
31
  3
3dWireframe
350
30
  3
Basic
350
32
  3
Brighten
350
36
  3
ColorChange
350
3A
  3
Conceptual
350
34
  3
Dim
350
35
  3
Facepattern
350
39
  3
Flat
350
2B
  3
FlatWithEdges
350
2C
  3
Gouraud
350
2D
  3
GouraudWithEdges
350
2E
  3
Linepattern
350
38
  3
Realistic
350
33
  3
Thicken
350
37
  0
DICTIONARY
  5
1CF
102
{ACAD_REACTORS
330
C
102
}
330
C
100
AcDbDictionary
281
     1
  3
CANNOSCALE
350
1D0
  0
LAYOUT
  5
1E
102
{ACAD_REACTORS
330
1A
102
}
330
1A
100
AcDbPlotSettings
  1

  2
none_device
  4

  6

 40
0.0
 41
0.0
 42
0.0
 43
0.0
 44
0.0
 45
0.0
 46
0.0
 47
0.0
 48
0.0
 49
0.0
140
0.0
141
0.0
142
1.0
143
1.0
 70
   688
 72
     0
 73
     0
 74
     5
  7

 75
    16
 76
     0
 77
     2
 78
   300
147
1.0
148
0.0
149
0.0
100
AcDbLayout
  1
Layout1
 70
     1
 71
     1
 10
0.0
 20
0.0
 11
420.0
 21
297.0
 12
0.0
 22
0.0
 32
0.0
 14
1.000000000000000E+20
 24
1.000000000000000E+20
 34
1.000000000000000E+20
 15
-1.000000000000000E+20
 25
-1.000000000000000E+20
 35
-1.000000000000000E+20
146
0.0
 13
0.0
 23
0.0
 33
0.0
 16
1.0
 26
0.0
 36
0.0
 17
0.0
 27
1.0
 37
0.0
 76
     0
330
1B
  0
LAYOUT
  5
26
102
{ACAD_REACTORS
330
1A
102
}
330
1A
100
AcDbPlotSettings
  1

  2
none_device
  4

  6

 40
0.0
 41
0.0
 42
0.0
 43
0.0
 44
0.0
 45
0.0
 46
0.0
 47
0.0
 48
0.0
 49
0.0
140
0.0
141
0.0
142
1.0
143
1.0
 70
   688
 72
     0
 73
     0
 74
     5
  7

 75
    16
 76
     0
 77
     2
 78
   300
147
1.0
148
0.0
149
0.0
100
AcDbLayout
  1
Layout2
 70
     1
 71
     2
 10
0.0
 20
0.0
 11
0.0
 21
0.0
 12
0.0
 22
0.0
 32
0.0
 14
0.0
 24
0.0
 34
0.0
 15
0.0
 25
0.0
 35
0.0
146
0.0
 13
0.0
 23
0.0
 33
0.0
 16
1.0
 26
0.0
 36
0.0
 17
0.0
 27
1.0
 37
0.0
 76
     0
330
23
  0
LAYOUT
  5
22
102
{ACAD_REACTORS
330
1A
102
}
330
1A
100
AcDbPlotSettings
  1

  2
none_device
  4

  6

 40
0.0
 41
0.0
 42
0.0
 43
0.0
 44
0.0
 45
0.0
 46
0.0
 47
0.0
 48
0.0
 49
0.0
140
0.0
141
0.0
142
1.0
143
1.0
 70
  1712
 72
     0
 73
     0
 74
     0
  7

 75
     0
 76
     0
 77
     2
 78
   300
147
1.0
148
0.0
149
0.0
100
AcDbLayout
  1
Model
 70
     1
 71
     0
 10
0.0
 20
0.0
 11
420.0
 21
297.0
 12
0.0
 22
0.0
 32
0.0
 14
-20.0
 24
-40.00000862079354
 34
0.0
 15
20.00001876291176
 25
40.0
 35
0.0
146
0.0
 13
0.0
 23
0.0
 33
0.0
 16
1.0
 26
0.0
 36
0.0
 17
0.0
 27
1.0
 37
0.0
 76
     0
330
1F
331
29
  0
MATERIAL
  5
3D
102
{ACAD_REACTORS
330
3B
102
}
330
3B
100
AcDbMaterial
  1
ByBlock
 72
     1
 94
      127
  0
MATERIAL
  5
3C
102
{ACAD_REACTORS
330
3B
102
}
330
3B
100
AcDbMaterial
  1
ByLayer
 72
     1
 94
      127
  0
MATERIAL
  5
3E
102
{ACAD_REACTORS
330
3B
102
}
330
3B
100
AcDbMaterial
  1
Global
 72
     1
 94
      127
  0
MLINESTYLE
  5
18
102
{ACAD_REACTORS
330
17
102
}
330
17
100
AcDbMlineStyle
  2
Standard
 70
     0
  3

 62
   256
 51
90.0
 52
90.0
 71
     2
 49
0.5
 62
   256
  6
BYLAYER
 49
-0.5
 62
   256
  6
BYLAYER
  0
ACDBPLACEHOLDER
  5
F
102
{ACAD_REACTORS
330
E
102
}
330
E
  0
SCALE
  5
1AE
102
{ACAD_REACTORS
330
1AD
102
}
330
1AD
100
AcDbScale
 70
     0
300
1:1
140
1.0
141
1.0
290
     1
  0
SCALE
  5
1AF
102
{ACAD_REACTORS
330
1AD
102
}
330
1AD
100
AcDbScale
 70
     0
300
1:2
140
1.0
141
2.0
290
     0
  0
SCALE
  5
1B0
102
{ACAD_REACTORS
330
1AD
102
}
330
1AD
100
AcDbScale
 70
     0
300
1:4
140
1.0
141
4.0
290
     0
  0
SCALE
  5
1B1
102
{ACAD_REACTORS
330
1AD
102
}
330
1AD
100
AcDbScale
 70
     0
300
1:5
140
1.0
141
5.0
290
     0
  0
SCALE
  5
1B2
102
{ACAD_REACTORS
330
1AD
102
}
330
1AD
100
AcDbScale
 70
     0
300
1:8
140
1.0
141
8.0
290
     0
  0
SCALE
  5
1B3
102
{ACAD_REACTORS
330
1AD
102
}
330
1AD
100
AcDbScale
 70
     0
300
1:10
140
1.0
141
10.0
290
     0
  0
SCALE
  5
1B4
102
{ACAD_REACTORS
330
1AD
102
}
330
1AD
100
AcDbScale
 70
     0
300
1:16
140
1.0
141
16.0
290
     0
  0
SCALE
  5
1B5
102
{ACAD_REACTORS
330
1AD
102
}
330
1AD
100
AcDbScale
 70
     0
300
1:20
140
1.0
141
20.0
290
     0
  0
SCALE
  5
1B6
102
{ACAD_REACTORS
330
1AD
102
}
330
1AD
100
AcDbScale
 70
     0
300
1:30
140
1.0
141
30.0
290
     0
  0
SCALE
  5
1B7
102
{ACAD_REACTORS
330
1AD
102
}
330
1AD
100
AcDbScale
 70
     0
300
1:40
140
1.0
141
40.0
290
     0
  0
SCALE
  5
1B8
102
{ACAD_REACTORS
330
1AD
102
}
330
1AD
100
AcDbScale
 70
     0
300
1:50
140
1.0
141
50.0
290
     0
  0
SCALE
  5
1B9
102
{ACAD_REACTORS
330
1AD
102
}
330
1AD
100
AcDbScale
 70
     0
300
1:100
140
1.0
141
100.0
290
     0
  0
SCALE
  5
1BA
102
{ACAD_REACTORS
330
1AD
102
}
330
1AD
100
AcDbScale
 70
     0
300
2:1
140
2.0
141
1.0
290
     0
  0
SCALE
  5
1BB
102
{ACAD_REACTORS
330
1AD
102
}
330
1AD
100
AcDbScale
 70
     0
300
4:1
140
4.0
141
1.0
290
     0
  0
SCALE
  5
1BC
102
{ACAD_REACTORS
330
1AD
102
}
330
1AD
100
AcDbScale
 70
     0
300
8:1
140
8.0
141
1.0
290
     0
  0
SCALE
  5
1BD
102
{ACAD_REACTORS
330
1AD
102
}
330
1AD
100
AcDbScale
 70
     0
300
10:1
140
10.0
141
1.0
290
     0
  0
SCALE
  5
1BE
102
{ACAD_REACTORS
330
1AD
102
}
330
1AD
100
AcDbScale
 70
     0
300
100:1
140
100.0
141
1.0
290
     0
  0
SCALE
  5
1BF
102
{ACAD_REACTORS
330
1AD
102
}
330
1AD
100
AcDbScale
 70
     0
300
1/128" = 1'-0"
140
0.0078125
141
12.0
290
     0
  0
SCALE
  5
1C0
102
{ACAD_REACTORS
330
1AD
102
}
330
1AD
100
AcDbScale
 70
     0
300
1/64" = 1'-0"
140
0.015625
141
12.0
290
     0
  0
SCALE
  5
1C1
102
{ACAD_REACTORS
330
1AD
102
}
330
1AD
100
AcDbScale
 70
     0
300
1/32" = 1'-0"
140
0.03125
141
12.0
290
     0
  0
SCALE
  5
1C2
102
{ACAD_REACTORS
330
1AD
102
}
330
1AD
100
AcDbScale
 70
     0
300
1/16" = 1'-0"
140
0.0625
141
12.0
290
     0
  0
SCALE
  5
1C3
102
{ACAD_REACTORS
330
1AD
102
}
330
1AD
100
AcDbScale
 70
     0
300
3/32" = 1'-0"
140
0.09375
141
12.0
290
     0
  0
SCALE
  5
1C4
102
{ACAD_REACTORS
330
1AD
102
}
330
1AD
100
AcDbScale
 70
     0
300
1/8" = 1'-0"
140
0.125
141
12.0
290
     0
  0
SCALE
  5
1C5
102
{ACAD_REACTORS
330
1AD
102
}
330
1AD
100
AcDbScale
 70
     0
300
3/16" = 1'-0"
140
0.1875
141
12.0
290
     0
  0
SCALE
  5
1C6
102
{ACAD_REACTORS
330
1AD
102
}
330
1AD
100
AcDbScale
 70
     0
300
1/4" = 1'-0"
140
0.25
141
12.0
290
     0
  0
SCALE
  5
1C7
102
{ACAD_REACTORS
330
1AD
102
}
330
1AD
100
AcDbScale
 70
     0
300
3/8" = 1'-0"
140
0.375
141
12.0
290
     0
  0
SCALE
  5
1C8
102
{ACAD_REACTORS
330
1AD
102
}
330
1AD
100
AcDbScale
 70
     0
300
1/2" = 1'-0"
140
0.5
141
12.0
290
     0
  0
SCALE
  5
1C9
102
{ACAD_REACTORS
330
1AD
102
}
330
1AD
100
AcDbScale
 70
     0
300
3/4" = 1'-0"
140
0.75
141
12.0
290
     0
  0
SCALE
  5
1CA
102
{ACAD_REACTORS
330
1AD
102
}
330
1AD
100
AcDbScale
 70
     0
300
1" = 1'-0"
140
1.0
141
12.0
290
     0
  0
SCALE
  5
1CB
102
{ACAD_REACTORS
330
1AD
102
}
330
1AD
100
AcDbScale
 70
     0
300
1-1/2" = 1'-0"
140
1.5
141
12.0
290
     0
  0
SCALE
  5
1CC
102
{ACAD_REACTORS
330
1AD
102
}
330
1AD
100
AcDbScale
 70
     0
300
3" = 1'-0"
140
3.0
141
12.0
290
     0
  0
SCALE
  5
1CD
102
{ACAD_REACTORS
330
1AD
102
}
330
1AD
100
AcDbScale
 70
     0
300
6" = 1'-0"
140
6.0
141
12.0
290
     0
  0
SCALE
  5
1CE
102
{ACAD_REACTORS
330
1AD
102
}
330
1AD
100
AcDbScale
 70
     0
300
1'-0" = 1'-0"
140
12.0
141
12.0
290
     0
  0
VISUALSTYLE
  5
2F
102
{ACAD_REACTORS
330
2A
102
}
102
{ACAD_XDICTIONARY
360
1D9
102
}
330
2A
100
AcDbVisualStyle
  2
2dWireframe
 70
     4
 71
     0
 72
     2
 73
     0
 90
        0
 40
-0.6
 41
-30.0
 62
     5
 63
     7
421
 16777215
 74
     1
 91
        4
 64
     7
 65
   257
 75
     1
175
     1
 42
1.0
 92
        0
 66
   257
 43
1.0
 76
     1
 77
     6
 78
     2
 67
     7
 79
     5
170
     0
171
     0
290
     0
174
     0
 93
        1
 44
0.0
173
     0
291
     0
 45
0.0
  0
VISUALSTYLE
  5
31
102
{ACAD_REACTORS
330
2A
102
}
102
{ACAD_XDICTIONARY
360
1DD
102
}
330
2A
100
AcDbVisualStyle
  2
3D Hidden
 70
     6
 71
     1
 72
     2
 73
     2
 90
        0
 40
-0.6
 41
-30.0
 62
     5
 63
     7
421
 16777215
 74
     2
 91
        2
 64
     7
 65
   257
 75
     2
175
     1
 42
40.0
 92
        0
 66
   257
 43
1.0
 76
     1
 77
     6
 78
     2
 67
     7
 79
     3
170
     0
171
     0
290
     0
174
     0
 93
        1
 44
0.0
173
     0
291
     0
 45
0.0
  0
VISUALSTYLE
  5
30
102
{ACAD_REACTORS
330
2A
102
}
102
{ACAD_XDICTIONARY
360
1DB
102
}
330
2A
100
AcDbVisualStyle
  2
3dWireframe
 70
     5
 71
     0
 72
     2
 73
     0
 90
        0
 40
-0.6
 41
-30.0
 62
     5
 63
     7
421
 16777215
 74
     1
 91
        4
 64
     7
 65
   257
 75
     1
175
     1
 42
1.0
 92
        0
 66
   257
 43
1.0
 76
     1
 77
     6
 78
     2
 67
     7
 79
     5
170
     0
171
     0
290
     0
174
     0
 93
        1
 44
0.0
173
     0
291
     0
 45
0.0
  0
VISUALSTYLE
  5
32
102
{ACAD_REACTORS
330
2A
102
}
102
{ACAD_XDICTIONARY
360
1DF
102
}
330
2A
100
AcDbVisualStyle
  2
Basic
 70
     7
 71
     1
 72
     0
 73
     1
 90
        0
 40
-0.6
 41
-30.0
 62
     5
 63
     7
421
 16777215
 74
     0
 91
        4
 64
     7
 65
   257
 75
     1
175
     1
 42
1.0
 92
        8
 66
     7
 43
1.0
 76
     1
 77
     6
 78
     2
 67
     7
 79
     5
170
     0
171
     0
290
     0
174
     0
 93
        1
 44
0.0
173
     0
291
     1
 45
0.0
  0
VISUALSTYLE
  5
36
102
{ACAD_REACTORS
330
2A
102
}
102
{ACAD_XDICTIONARY
360
1E7
102
}
330
2A
100
AcDbVisualStyle
  2
Brighten
 70
    12
 71
     2
 72
     2
 73
     0
 90
        0
 40
-0.6
 41
-30.0
 62
     5
 63
     7
421
 16777215
 74
     1
 91
        4
 64
     7
 65
   257
 75
     1
175
     1
 42
1.0
 92
        8
 66
     7
 43
1.0
 76
     1
 77
     6
 78
     2
 67
     7
 79
     5
170
     0
171
     0
290
     0
174
     0
 93
        1
 44
50.0
173
     0
291
     1
 45
0.0
  0
VISUALSTYLE
  5
3A
102
{ACAD_REACTORS
330
2A
102
}
102
{ACAD_XDICTIONARY
360
1EF
102
}
330
2A
100
AcDbVisualStyle
  2
ColorChange
 70
    16
 71
     2
 72
     2
 73
     3
 90
        0
 40
-0.6
 41
-30.0
 62
     5
 63
     8
421
  8421504
 74
     1
 91
        4
 64
     7
 65
   257
 75
     1
175
     1
 42
1.0
 92
        8
 66
     8
424
  8421504
 43
1.0
 76
     1
 77
     6
 78
     2
 67
     7
 79
     5
170
     0
171
     0
290
     0
174
     0
 93
        1
 44
0.0
173
     0
291
     1
 45
0.0
  0
VISUALSTYLE
  5
34
102
{ACAD_REACTORS
330
2A
102
}
102
{ACAD_XDICTIONARY
360
1E3
102
}
330
2A
100
AcDbVisualStyle
  2
Conceptual
 70
     9
 71
     3
 72
     2
 73
     0
 90
        0
 40
-0.6
 41
-30.0
 62
     5
 63
     7
421
 16777215
 74
     2
 91
        2
 64
     7
 65
   257
 75
     1
175
     1
 42
40.0
 92
        8
 66
     7
 43
1.0
 76
     1
 77
     6
 78
     2
 67
     7
 79
     3
170
     0
171
     0
290
     0
174
     0
 93
        1
 44
0.0
173
     0
291
     0
 45
0.0
  0
VISUALSTYLE
  5
35
102
{ACAD_REACTORS
330
2A
102
}
102
{ACAD_XDICTIONARY
360
1E5
102
}
330
2A
100
AcDbVisualStyle
  2
Dim
 70
    11
 71
     2
 72
     2
 73
     0
 90
        0
 40
-0.6
 41
-30.0
 62
     5
 63
     7
421
 16777215
 74
     1
 91
        4
 64
     7
 65
   257
 75
     1
175
     1
 42
1.0
 92
        8
 66
     7
 43
1.0
 76
     1
 77
     6
 78
     2
 67
     7
 79
     5
170
     0
171
     0
290
     0
174
     0
 93
        1
 44
-50.0
173
     0
291
     1
 45
0.0
  0
VISUALSTYLE
  5
39
102
{ACAD_REACTORS
330
2A
102
}
102
{ACAD_XDICTIONARY
360
1ED
102
}
330
2A
100
AcDbVisualStyle
  2
Facepattern
 70
    15
 71
     2
 72
     2
 73
     0
 90
        0
 40
-0.6
 41
-30.0
 62
     5
 63
     7
421
 16777215
 74
     1
 91
        4
 64
     7
 65
   257
 75
     1
175
     1
 42
1.0
 92
        8
 66
     7
 43
1.0
 76
     1
 77
     6
 78
     2
 67
     7
 79
     5
170
     0
171
     0
290
     0
174
     0
 93
        1
 44
0.0
173
     0
291
     1
 45
0.0
  0
VISUALSTYLE
  5
2B
102
{ACAD_REACTORS
330
2A
102
}
102
{ACAD_XDICTIONARY
360
1D1
102
}
330
2A
100
AcDbVisualStyle
  2
Flat
 70
     0
 71
     2
 72
     1
 73
     1
 90
        2
 40
-0.6
 41
30.0
 62
     5
 63
     7
421
 16777215
 74
     0
 91
        4
 64
     7
 65
   257
 75
     1
175
     1
 42
1.0
 92
        8
 66
     7
 43
1.0
 76
     1
 77
     6
 78
     2
 67
     7
 79
     5
170
     0
171
     0
290
     0
174
     0
 93
       13
 44
0.0
173
     0
291
     1
 45
0.0
  0
VISUALSTYLE
  5
2C
102
{ACAD_REACTORS
330
2A
102
}
102
{ACAD_XDICTIONARY
360
1D3
102
}
330
2A
100
AcDbVisualStyle
  2
FlatWithEdges
 70
     1
 71
     2
 72
     1
 73
     1
 90
        2
 40
-0.6
 41
30.0
 62
     5
 63
     7
421
 16777215
 74
     1
 91
        4
 64
     7
 65
   257
 75
     1
175
     1
 42
1.0
 92
        0
 66
   257
 43
1.0
 76
     1
 77
     6
 78
     2
 67
     7
 79
     5
170
     0
171
     0
290
     0
174
     0
 93
       13
 44
0.0
173
     0
291
     1
 45
0.0
  0
VISUALSTYLE
  5
2D
102
{ACAD_REACTORS
330
2A
102
}
102
{ACAD_XDICTIONARY
360
1D5
102
}
330
2A
100
AcDbVisualStyle
  2
Gouraud
 70
     2
 71
     2
 72
     2
 73
     1
 90
        2
 40
-0.6
 41
30.0
 62
     5
 63
     7
421
 16777215
 74
     0
 91
        4
 64
     7
 65
   257
 75
     1
175
     1
 42
1.0
 92
        0
 66
     7
 43
1.0
 76
     1
 77
     6
 78
     2
 67
     7
 79
     5
170
     0
171
     0
290
     0
174
     0
 93
       13
 44
0.0
173
     0
291
     1
 45
0.0
  0
VISUALSTYLE
  5
2E
102
{ACAD_REACTORS
330
2A
102
}
102
{ACAD_XDICTIONARY
360
1D7
102
}
330
2A
100
AcDbVisualStyle
  2
GouraudWithEdges
 70
     3
 71
     2
 72
     2
 73
     1
 90
        2
 40
-0.6
 41
30.0
 62
     5
 63
     7
421
 16777215
 74
     1
 91
        4
 64
     7
 65
   257
 75
     1
175
     1
 42
1.0
 92
        0
 66
   257
 43
1.0
 76
     1
 77
     6
 78
     2
 67
     7
 79
     5
170
     0
171
     0
290
     0
174
     0
 93
       13
 44
0.0
173
     0
291
     1
 45
0.0
  0
VISUALSTYLE
  5
38
102
{ACAD_REACTORS
330
2A
102
}
102
{ACAD_XDICTIONARY
360
1EB
102
}
330
2A
100
AcDbVisualStyle
  2
Linepattern
 70
    14
 71
     2
 72
     2
 73
     0
 90
        0
 40
-0.6
 41
-30.0
 62
     5
 63
     7
421
 16777215
 74
     1
 91
        4
 64
     7
 65
   257
 75
     7
175
     7
 42
1.0
 92
        8
 66
     7
 43
1.0
 76
     1
 77
     6
 78
     2
 67
     7
 79
     5
170
     0
171
     0
290
     0
174
     0
 93
        1
 44
0.0
173
     0
291
     1
 45
0.0
  0
VISUALSTYLE
  5
33
102
{ACAD_REACTORS
330
2A
102
}
102
{ACAD_XDICTIONARY
360
1E1
102
}
330
2A
100
AcDbVisualStyle
  2
Realistic
 70
     8
 71
     2
 72
     2
 73
     0
 90
        0
 40
-0.6
 41
-30.0
 62
     5
 63
     7
421
 16777215
 74
     1
 91
        0
 64
     7
 65
   257
 75
     1
175
     1
 42
1.0
 92
        8
 66
     8
424
  7895160
 43
1.0
 76
     1
 77
     6
 78
     2
 67
     7
 79
     5
170
     0
171
     0
290
     0
174
     0
 93
       13
 44
0.0
173
     0
291
     0
 45
0.0
  0
VISUALSTYLE
  5
37
102
{ACAD_REACTORS
330
2A
102
}
102
{ACAD_XDICTIONARY
360
1E9
102
}
330
2A
100
AcDbVisualStyle
  2
Thicken
 70
    13
 71
     2
 72
     2
 73
     0
 90
        0
 40
-0.6
 41
-30.0
 62
     5
 63
     7
421
 16777215
 74
     1
 91
        4
 64
     7
 65
   257
 75
     1
175
     1
 42
1.0
 92
       12
 66
     7
 43
1.0
 76
     1
 77
     6
 78
     2
 67
     7
 79
     5
170
     0
171
     0
290
     0
174
     0
 93
        1
 44
0.0
173
     0
291
     1
 45
0.0
  0
DICTIONARYVAR
  5
1D0
102
{ACAD_REACTORS
330
1CF
102
}
330
1CF
100
DictionaryVariables
280
     0
  1
1:1
  0
DICTIONARY
  5
1D9
330
2F
100
AcDbDictionary
280
     1
281
     1
  3
ACAD_XREC_ROUNDTRIP
360
1DA
  0
DICTIONARY
  5
1DD
330
31
100
AcDbDictionary
280
     1
281
     1
  3
ACAD_XREC_ROUNDTRIP
360
1DE
  0
DICTIONARY
  5
1DB
330
30
100
AcDbDictionary
280
     1
281
     1
  3
ACAD_XREC_ROUNDTRIP
360
1DC
  0
DICTIONARY
  5
1DF
330
32
100
AcDbDictionary
280
     1
281
     1
  3
ACAD_XREC_ROUNDTRIP
360
1E0
  0
DICTIONARY
  5
1E7
330
36
100
AcDbDictionary
280
     1
281
     1
  3
ACAD_XREC_ROUNDTRIP
360
1E8
  0
DICTIONARY
  5
1EF
330
3A
100
AcDbDictionary
280
     1
281
     1
  3
ACAD_XREC_ROUNDTRIP
360
1F0
  0
DICTIONARY
  5
1E3
330
34
100
AcDbDictionary
280
     1
281
     1
  3
ACAD_XREC_ROUNDTRIP
360
1E4
  0
DICTIONARY
  5
1E5
330
35
100
AcDbDictionary
280
     1
281
     1
  3
ACAD_XREC_ROUNDTRIP
360
1E6
  0
DICTIONARY
  5
1ED
330
39
100
AcDbDictionary
280
     1
281
     1
  3
ACAD_XREC_ROUNDTRIP
360
1EE
  0
DICTIONARY
  5
1D1
330
2B
100
AcDbDictionary
280
     1
281
     1
  3
ACAD_XREC_ROUNDTRIP
360
1D2
  0
DICTIONARY
  5
1D3
330
2C
100
AcDbDictionary
280
     1
281
     1
  3
ACAD_XREC_ROUNDTRIP
360
1D4
  0
DICTIONARY
  5
1D5
330
2D
100
AcDbDictionary
280
     1
281
     1
  3
ACAD_XREC_ROUNDTRIP
360
1D6
  0
DICTIONARY
  5
1D7
330
2E
100
AcDbDictionary
280
     1
281
     1
  3
ACAD_XREC_ROUNDTRIP
360
1D8
  0
DICTIONARY
  5
1EB
330
38
100
AcDbDictionary
280
     1
281
     1
  3
ACAD_XREC_ROUNDTRIP
360
1EC
  0
DICTIONARY
  5
1E1
330
33
100
AcDbDictionary
280
     1
281
     1
  3
ACAD_XREC_ROUNDTRIP
360
1E2
  0
DICTIONARY
  5
1E9
330
37
100
AcDbDictionary
280
     1
281
     1
  3
ACAD_XREC_ROUNDTRIP
360
1EA
  0
XRECORD
  5
1DA
102
{ACAD_REACTORS
330
1D9
102
}
330
1D9
100
AcDbXrecord
280
     1
102
RTVSPropertyOp0
 70
     1
102
RTVSPropertyOp1
 70
     1
102
RTVSPropertyOp2
 70
     1
102
RTVSPropertyOp3
 70
     1
102
RTVSPropertyOp4
 70
     1
102
RTVSPropertyOp5
 70
     1
102
RTVSPropertyOp6
 70
     1
102
RTVSPropertyOp7
 70
     1
102
RTVSPropertyOp8
 70
     1
102
RTVSPropertyOp9
 70
     1
102
RTVSPropertyOp10
 70
     1
102
RTVSPropertyOp11
 70
     1
102
RTVSPropertyOp12
 70
     1
102
RTVSPropertyOp13
 70
     1
102
RTVSPropertyOp14
 70
     1
102
RTVSPropertyOp15
 70
     1
102
RTVSPropertyOp16
 70
     1
102
RTVSPropertyOp17
 70
     1
102
RTVSPropertyOp18
 70
     1
102
RTVSPropertyOp19
 70
     1
102
RTVSPropertyOp20
 70
     1
102
RTVSPropertyOp21
 70
     1
102
RTVSPropertyOp22
 70
     1
102
RTVSPropertyOp23
 70
     1
102
RTVSPropertyOp24
 70
     1
102
RTVSPropertyOp25
 70
     1
102
RTVSPropertyOp26
 70
     1
102
RTVSPropertyOp27
 70
     1
102
RTVSPropertyOp28
 70
     1
102
RTVSPropertyOp29
 70
     1
102
RTVSPropertyOp30
 70
     1
102
RTVSPropertyOp31
 70
     1
102
RTVSPropertyOp32
 70
     1
  0
XRECORD
  5
1DE
102
{ACAD_REACTORS
330
1DD
102
}
330
1DD
100
AcDbXrecord
280
     1
102
RTVSPropertyOp0
 70
     1
102
RTVSPropertyOp1
 70
     1
102
RTVSPropertyOp2
 70
     1
102
RTVSPropertyOp3
 70
     1
102
RTVSPropertyOp4
 70
     1
102
RTVSPropertyOp5
 70
     1
102
RTVSPropertyOp6
 70
     1
102
RTVSPropertyOp7
 70
     1
102
RTVSPropertyOp8
 70
     1
102
RTVSPropertyOp9
 70
     1
102
RTVSPropertyOp10
 70
     1
102
RTVSPropertyOp11
 70
     1
102
RTVSPropertyOp12
 70
     1
102
RTVSPropertyOp13
 70
     1
102
RTVSPropertyOp14
 70
     1
102
RTVSPropertyOp15
 70
     1
102
RTVSPropertyOp16
 70
     1
102
RTVSPropertyOp17
 70
     1
102
RTVSPropertyOp18
 70
     1
102
RTVSPropertyOp19
 70
     1
102
RTVSPropertyOp20
 70
     1
102
RTVSPropertyOp21
 70
     1
102
RTVSPropertyOp22
 70
     1
102
RTVSPropertyOp23
 70
     1
102
RTVSPropertyOp24
 70
     1
102
RTVSPropertyOp25
 70
     1
102
RTVSPropertyOp26
 70
     1
102
RTVSPropertyOp27
 70
     1
102
RTVSPropertyOp28
 70
     1
102
RTVSPropertyOp29
 70
     1
102
RTVSPropertyOp30
 70
     1
102
RTVSPropertyOp31
 70
     1
102
RTVSPropertyOp32
 70
     1
  0
XRECORD
  5
1DC
102
{ACAD_REACTORS
330
1DB
102
}
330
1DB
100
AcDbXrecord
280
     1
102
RTVSPropertyOp0
 70
     1
102
RTVSPropertyOp1
 70
     1
102
RTVSPropertyOp2
 70
     1
102
RTVSPropertyOp3
 70
     1
102
RTVSPropertyOp4
 70
     1
102
RTVSPropertyOp5
 70
     1
102
RTVSPropertyOp6
 70
     1
102
RTVSPropertyOp7
 70
     1
102
RTVSPropertyOp8
 70
     1
102
RTVSPropertyOp9
 70
     1
102
RTVSPropertyOp10
 70
     1
102
RTVSPropertyOp11
 70
     1
102
RTVSPropertyOp12
 70
     1
102
RTVSPropertyOp13
 70
     1
102
RTVSPropertyOp14
 70
     1
102
RTVSPropertyOp15
 70
     1
102
RTVSPropertyOp16
 70
     1
102
RTVSPropertyOp17
 70
     1
102
RTVSPropertyOp18
 70
     1
102
RTVSPropertyOp19
 70
     1
102
RTVSPropertyOp20
 70
     1
102
RTVSPropertyOp21
 70
     1
102
RTVSPropertyOp22
 70
     1
102
RTVSPropertyOp23
 70
     1
102
RTVSPropertyOp24
 70
     1
102
RTVSPropertyOp25
 70
     1
102
RTVSPropertyOp26
 70
     1
102
RTVSPropertyOp27
 70
     1
102
RTVSPropertyOp28
 70
     1
102
RTVSPropertyOp29
 70
     1
102
RTVSPropertyOp30
 70
     1
102
RTVSPropertyOp31
 70
     1
102
RTVSPropertyOp32
 70
     1
  0
XRECORD
  5
1E0
102
{ACAD_REACTORS
330
1DF
102
}
330
1DF
100
AcDbXrecord
280
     1
102
RTVSPropertyOp0
 70
     1
102
RTVSPropertyOp1
 70
     1
102
RTVSPropertyOp2
 70
     1
102
RTVSPropertyOp3
 70
     1
102
RTVSPropertyOp4
 70
     1
102
RTVSPropertyOp5
 70
     1
102
RTVSPropertyOp6
 70
     1
102
RTVSPropertyOp7
 70
     1
102
RTVSPropertyOp8
 70
     1
102
RTVSPropertyOp9
 70
     1
102
RTVSPropertyOp10
 70
     1
102
RTVSPropertyOp11
 70
     1
102
RTVSPropertyOp12
 70
     1
102
RTVSPropertyOp13
 70
     1
102
RTVSPropertyOp14
 70
     1
102
RTVSPropertyOp15
 70
     1
102
RTVSPropertyOp16
 70
     1
102
RTVSPropertyOp17
 70
     1
102
RTVSPropertyOp18
 70
     1
102
RTVSPropertyOp19
 70
     1
102
RTVSPropertyOp20
 70
     1
102
RTVSPropertyOp21
 70
     1
102
RTVSPropertyOp22
 70
     1
102
RTVSPropertyOp23
 70
     1
102
RTVSPropertyOp24
 70
     1
102
RTVSPropertyOp25
 70
     1
102
RTVSPropertyOp26
 70
     1
102
RTVSPropertyOp27
 70
     1
102
RTVSPropertyOp28
 70
     1
102
RTVSPropertyOp29
 70
     1
102
RTVSPropertyOp30
 70
     1
102
RTVSPropertyOp31
 70
     1
102
RTVSPropertyOp32
 70
     1
  0
XRECORD
  5
1E8
102
{ACAD_REACTORS
330
1E7
102
}
330
1E7
100
AcDbXrecord
280
     1
102
RTVSPropertyOp0
 70
     1
102
RTVSPropertyOp1
 70
     1
102
RTVSPropertyOp2
 70
     1
102
RTVSPropertyOp3
 70
     1
102
RTVSPropertyOp4
 70
     1
102
RTVSPropertyOp5
 70
     1
102
RTVSPropertyOp6
 70
     1
102
RTVSPropertyOp7
 70
     1
102
RTVSPropertyOp8
 70
     1
102
RTVSPropertyOp9
 70
     1
102
RTVSPropertyOp10
 70
     1
102
RTVSPropertyOp11
 70
     1
102
RTVSPropertyOp12
 70
     1
102
RTVSPropertyOp13
 70
     1
102
RTVSPropertyOp14
 70
     1
102
RTVSPropertyOp15
 70
     1
102
RTVSPropertyOp16
 70
     1
102
RTVSPropertyOp17
 70
     1
102
RTVSPropertyOp18
 70
     1
102
RTVSPropertyOp19
 70
     1
102
RTVSPropertyOp20
 70
     1
102
RTVSPropertyOp21
 70
     1
102
RTVSPropertyOp22
 70
     1
102
RTVSPropertyOp23
 70
     1
102
RTVSPropertyOp24
 70
     1
102
RTVSPropertyOp25
 70
     1
102
RTVSPropertyOp26
 70
     1
102
RTVSPropertyOp27
 70
     1
102
RTVSPropertyOp28
 70
     1
102
RTVSPropertyOp29
 70
     1
102
RTVSPropertyOp30
 70
     1
102
RTVSPropertyOp31
 70
     1
102
RTVSPropertyOp32
 70
     1
  0
XRECORD
  5
1F0
102
{ACAD_REACTORS
330
1EF
102
}
330
1EF
100
AcDbXrecord
280
     1
102
RTVSPropertyOp0
 70
     1
102
RTVSPropertyOp1
 70
     1
102
RTVSPropertyOp2
 70
     1
102
RTVSPropertyOp3
 70
     1
102
RTVSPropertyOp4
 70
     1
102
RTVSPropertyOp5
 70
     1
102
RTVSPropertyOp6
 70
     1
102
RTVSPropertyOp7
 70
     1
102
RTVSPropertyOp8
 70
     1
102
RTVSPropertyOp9
 70
     1
102
RTVSPropertyOp10
 70
     1
102
RTVSPropertyOp11
 70
     1
102
RTVSPropertyOp12
 70
     1
102
RTVSPropertyOp13
 70
     1
102
RTVSPropertyOp14
 70
     1
102
RTVSPropertyOp15
 70
     1
102
RTVSPropertyOp16
 70
     1
102
RTVSPropertyOp17
 70
     1
102
RTVSPropertyOp18
 70
     1
102
RTVSPropertyOp19
 70
     1
102
RTVSPropertyOp20
 70
     1
102
RTVSPropertyOp21
 70
     1
102
RTVSPropertyOp22
 70
     1
102
RTVSPropertyOp23
 70
     1
102
RTVSPropertyOp24
 70
     1
102
RTVSPropertyOp25
 70
     1
102
RTVSPropertyOp26
 70
     1
102
RTVSPropertyOp27
 70
     1
102
RTVSPropertyOp28
 70
     1
102
RTVSPropertyOp29
 70
     1
102
RTVSPropertyOp30
 70
     1
102
RTVSPropertyOp31
 70
     1
102
RTVSPropertyOp32
 70
     1
  0
XRECORD
  5
1E4
102
{ACAD_REACTORS
330
1E3
102
}
330
1E3
100
AcDbXrecord
280
     1
102
RTVSPropertyOp0
 70
     1
102
RTVSPropertyOp1
 70
     1
102
RTVSPropertyOp2
 70
     1
102
RTVSPropertyOp3
 70
     1
102
RTVSPropertyOp4
 70
     1
102
RTVSPropertyOp5
 70
     1
102
RTVSPropertyOp6
 70
     1
102
RTVSPropertyOp7
 70
     1
102
RTVSPropertyOp8
 70
     1
102
RTVSPropertyOp9
 70
     1
102
RTVSPropertyOp10
 70
     1
102
RTVSPropertyOp11
 70
     1
102
RTVSPropertyOp12
 70
     1
102
RTVSPropertyOp13
 70
     1
102
RTVSPropertyOp14
 70
     1
102
RTVSPropertyOp15
 70
     1
102
RTVSPropertyOp16
 70
     1
102
RTVSPropertyOp17
 70
     1
102
RTVSPropertyOp18
 70
     1
102
RTVSPropertyOp19
 70
     1
102
RTVSPropertyOp20
 70
     1
102
RTVSPropertyOp21
 70
     1
102
RTVSPropertyOp22
 70
     1
102
RTVSPropertyOp23
 70
     1
102
RTVSPropertyOp24
 70
     1
102
RTVSPropertyOp25
 70
     1
102
RTVSPropertyOp26
 70
     1
102
RTVSPropertyOp27
 70
     1
102
RTVSPropertyOp28
 70
     1
102
RTVSPropertyOp29
 70
     1
102
RTVSPropertyOp30
 70
     1
102
RTVSPropertyOp31
 70
     1
102
RTVSPropertyOp32
 70
     1
  0
XRECORD
  5
1E6
102
{ACAD_REACTORS
330
1E5
102
}
330
1E5
100
AcDbXrecord
280
     1
102
RTVSPropertyOp0
 70
     1
102
RTVSPropertyOp1
 70
     1
102
RTVSPropertyOp2
 70
     1
102
RTVSPropertyOp3
 70
     1
102
RTVSPropertyOp4
 70
     1
102
RTVSPropertyOp5
 70
     1
102
RTVSPropertyOp6
 70
     1
102
RTVSPropertyOp7
 70
     1
102
RTVSPropertyOp8
 70
     1
102
RTVSPropertyOp9
 70
     1
102
RTVSPropertyOp10
 70
     1
102
RTVSPropertyOp11
 70
     1
102
RTVSPropertyOp12
 70
     1
102
RTVSPropertyOp13
 70
     1
102
RTVSPropertyOp14
 70
     1
102
RTVSPropertyOp15
 70
     1
102
RTVSPropertyOp16
 70
     1
102
RTVSPropertyOp17
 70
     1
102
RTVSPropertyOp18
 70
     1
102
RTVSPropertyOp19
 70
     1
102
RTVSPropertyOp20
 70
     1
102
RTVSPropertyOp21
 70
     1
102
RTVSPropertyOp22
 70
     1
102
RTVSPropertyOp23
 70
     1
102
RTVSPropertyOp24
 70
     1
102
RTVSPropertyOp25
 70
     1
102
RTVSPropertyOp26
 70
     1
102
RTVSPropertyOp27
 70
     1
102
RTVSPropertyOp28
 70
     1
102
RTVSPropertyOp29
 70
     1
102
RTVSPropertyOp30
 70
     1
102
RTVSPropertyOp31
 70
     1
102
RTVSPropertyOp32
 70
     1
  0
XRECORD
  5
1EE
102
{ACAD_REACTORS
330
1ED
102
}
330
1ED
100
AcDbXrecord
280
     1
102
RTVSPropertyOp0
 70
     1
102
RTVSPropertyOp1
 70
     1
102
RTVSPropertyOp2
 70
     1
102
RTVSPropertyOp3
 70
     1
102
RTVSPropertyOp4
 70
     1
102
RTVSPropertyOp5
 70
     1
102
RTVSPropertyOp6
 70
     1
102
RTVSPropertyOp7
 70
     1
102
RTVSPropertyOp8
 70
     1
102
RTVSPropertyOp9
 70
     1
102
RTVSPropertyOp10
 70
     1
102
RTVSPropertyOp11
 70
     1
102
RTVSPropertyOp12
 70
     1
102
RTVSPropertyOp13
 70
     1
102
RTVSPropertyOp14
 70
     1
102
RTVSPropertyOp15
 70
     1
102
RTVSPropertyOp16
 70
     1
102
RTVSPropertyOp17
 70
     1
102
RTVSPropertyOp18
 70
     1
102
RTVSPropertyOp19
 70
     1
102
RTVSPropertyOp20
 70
     1
102
RTVSPropertyOp21
 70
     1
102
RTVSPropertyOp22
 70
     1
102
RTVSPropertyOp23
 70
     1
102
RTVSPropertyOp24
 70
     1
102
RTVSPropertyOp25
 70
     1
102
RTVSPropertyOp26
 70
     1
102
RTVSPropertyOp27
 70
     1
102
RTVSPropertyOp28
 70
     1
102
RTVSPropertyOp29
 70
     1
102
RTVSPropertyOp30
 70
     1
102
RTVSPropertyOp31
 70
     1
102
RTVSPropertyOp32
 70
     1
  0
XRECORD
  5
1D2
102
{ACAD_REACTORS
330
1D1
102
}
330
1D1
100
AcDbXrecord
280
     1
102
RTVSPropertyOp0
 70
     1
102
RTVSPropertyOp1
 70
     1
102
RTVSPropertyOp2
 70
     1
102
RTVSPropertyOp3
 70
     1
102
RTVSPropertyOp4
 70
     1
102
RTVSPropertyOp5
 70
     1
102
RTVSPropertyOp6
 70
     1
102
RTVSPropertyOp7
 70
     1
102
RTVSPropertyOp8
 70
     1
102
RTVSPropertyOp9
 70
     1
102
RTVSPropertyOp10
 70
     1
102
RTVSPropertyOp11
 70
     1
102
RTVSPropertyOp12
 70
     1
102
RTVSPropertyOp13
 70
     1
102
RTVSPropertyOp14
 70
     1
102
RTVSPropertyOp15
 70
     1
102
RTVSPropertyOp16
 70
     1
102
RTVSPropertyOp17
 70
     1
102
RTVSPropertyOp18
 70
     1
102
RTVSPropertyOp19
 70
     1
102
RTVSPropertyOp20
 70
     1
102
RTVSPropertyOp21
 70
     1
102
RTVSPropertyOp22
 70
     1
102
RTVSPropertyOp23
 70
     1
102
RTVSPropertyOp24
 70
     1
102
RTVSPropertyOp25
 70
     1
102
RTVSPropertyOp26
 70
     1
102
RTVSPropertyOp27
 70
     1
102
RTVSPropertyOp28
 70
     1
102
RTVSPropertyOp29
 70
     1
102
RTVSPropertyOp30
 70
     1
102
RTVSPropertyOp31
 70
     1
102
RTVSPropertyOp32
 70
     1
  0
XRECORD
  5
1D4
102
{ACAD_REACTORS
330
1D3
102
}
330
1D3
100
AcDbXrecord
280
     1
102
RTVSPropertyOp0
 70
     1
102
RTVSPropertyOp1
 70
     1
102
RTVSPropertyOp2
 70
     1
102
RTVSPropertyOp3
 70
     1
102
RTVSPropertyOp4
 70
     1
102
RTVSPropertyOp5
 70
     1
102
RTVSPropertyOp6
 70
     1
102
RTVSPropertyOp7
 70
     1
102
RTVSPropertyOp8
 70
     1
102
RTVSPropertyOp9
 70
     1
102
RTVSPropertyOp10
 70
     1
102
RTVSPropertyOp11
 70
     1
102
RTVSPropertyOp12
 70
     1
102
RTVSPropertyOp13
 70
     1
102
RTVSPropertyOp14
 70
     1
102
RTVSPropertyOp15
 70
     1
102
RTVSPropertyOp16
 70
     1
102
RTVSPropertyOp17
 70
     1
102
RTVSPropertyOp18
 70
     1
102
RTVSPropertyOp19
 70
     1
102
RTVSPropertyOp20
 70
     1
102
RTVSPropertyOp21
 70
     1
102
RTVSPropertyOp22
 70
     1
102
RTVSPropertyOp23
 70
     1
102
RTVSPropertyOp24
 70
     1
102
RTVSPropertyOp25
 70
     1
102
RTVSPropertyOp26
 70
     1
102
RTVSPropertyOp27
 70
     1
102
RTVSPropertyOp28
 70
     1
102
RTVSPropertyOp29
 70
     1
102
RTVSPropertyOp30
 70
     1
102
RTVSPropertyOp31
 70
     1
102
RTVSPropertyOp32
 70
     1
  0
XRECORD
  5
1D6
102
{ACAD_REACTORS
330
1D5
102
}
330
1D5
100
AcDbXrecord
280
     1
102
RTVSPropertyOp0
 70
     1
102
RTVSPropertyOp1
 70
     1
102
RTVSPropertyOp2
 70
     1
102
RTVSPropertyOp3
 70
     1
102
RTVSPropertyOp4
 70
     1
102
RTVSPropertyOp5
 70
     1
102
RTVSPropertyOp6
 70
     1
102
RTVSPropertyOp7
 70
     1
102
RTVSPropertyOp8
 70
     1
102
RTVSPropertyOp9
 70
     1
102
RTVSPropertyOp10
 70
     1
102
RTVSPropertyOp11
 70
     1
102
RTVSPropertyOp12
 70
     1
102
RTVSPropertyOp13
 70
     1
102
RTVSPropertyOp14
 70
     1
102
RTVSPropertyOp15
 70
     1
102
RTVSPropertyOp16
 70
     1
102
RTVSPropertyOp17
 70
     1
102
RTVSPropertyOp18
 70
     1
102
RTVSPropertyOp19
 70
     1
102
RTVSPropertyOp20
 70
     1
102
RTVSPropertyOp21
 70
     1
102
RTVSPropertyOp22
 70
     1
102
RTVSPropertyOp23
 70
     1
102
RTVSPropertyOp24
 70
     1
102
RTVSPropertyOp25
 70
     1
102
RTVSPropertyOp26
 70
     1
102
RTVSPropertyOp27
 70
     1
102
RTVSPropertyOp28
 70
     1
102
RTVSPropertyOp29
 70
     1
102
RTVSPropertyOp30
 70
     1
102
RTVSPropertyOp31
 70
     1
102
RTVSPropertyOp32
 70
     1
  0
XRECORD
  5
1D8
102
{ACAD_REACTORS
330
1D7
102
}
330
1D7
100
AcDbXrecord
280
     1
102
RTVSPropertyOp0
 70
     1
102
RTVSPropertyOp1
 70
     1
102
RTVSPropertyOp2
 70
     1
102
RTVSPropertyOp3
 70
     1
102
RTVSPropertyOp4
 70
     1
102
RTVSPropertyOp5
 70
     1
102
RTVSPropertyOp6
 70
     1
102
RTVSPropertyOp7
 70
     1
102
RTVSPropertyOp8
 70
     1
102
RTVSPropertyOp9
 70
     1
102
RTVSPropertyOp10
 70
     1
102
RTVSPropertyOp11
 70
     1
102
RTVSPropertyOp12
 70
     1
102
RTVSPropertyOp13
 70
     1
102
RTVSPropertyOp14
 70
     1
102
RTVSPropertyOp15
 70
     1
102
RTVSPropertyOp16
 70
     1
102
RTVSPropertyOp17
 70
     1
102
RTVSPropertyOp18
 70
     1
102
RTVSPropertyOp19
 70
     1
102
RTVSPropertyOp20
 70
     1
102
RTVSPropertyOp21
 70
     1
102
RTVSPropertyOp22
 70
     1
102
RTVSPropertyOp23
 70
     1
102
RTVSPropertyOp24
 70
     1
102
RTVSPropertyOp25
 70
     1
102
RTVSPropertyOp26
 70
     1
102
RTVSPropertyOp27
 70
     1
102
RTVSPropertyOp28
 70
     1
102
RTVSPropertyOp29
 70
     1
102
RTVSPropertyOp30
 70
     1
102
RTVSPropertyOp31
 70
     1
102
RTVSPropertyOp32
 70
     1
  0
XRECORD
  5
1EC
102
{ACAD_REACTORS
330
1EB
102
}
330
1EB
100
AcDbXrecord
280
     1
102
RTVSPropertyOp0
 70
     1
102
RTVSPropertyOp1
 70
     1
102
RTVSPropertyOp2
 70
     1
102
RTVSPropertyOp3
 70
     1
102
RTVSPropertyOp4
 70
     1
102
RTVSPropertyOp5
 70
     1
102
RTVSPropertyOp6
 70
     1
102
RTVSPropertyOp7
 70
     1
102
RTVSPropertyOp8
 70
     1
102
RTVSPropertyOp9
 70
     1
102
RTVSPropertyOp10
 70
     1
102
RTVSPropertyOp11
 70
     1
102
RTVSPropertyOp12
 70
     1
102
RTVSPropertyOp13
 70
     1
102
RTVSPropertyOp14
 70
     1
102
RTVSPropertyOp15
 70
     1
102
RTVSPropertyOp16
 70
     1
102
RTVSPropertyOp17
 70
     1
102
RTVSPropertyOp18
 70
     1
102
RTVSPropertyOp19
 70
     1
102
RTVSPropertyOp20
 70
     1
102
RTVSPropertyOp21
 70
     1
102
RTVSPropertyOp22
 70
     1
102
RTVSPropertyOp23
 70
     1
102
RTVSPropertyOp24
 70
     1
102
RTVSPropertyOp25
 70
     1
102
RTVSPropertyOp26
 70
     1
102
RTVSPropertyOp27
 70
     1
102
RTVSPropertyOp28
 70
     1
102
RTVSPropertyOp29
 70
     1
102
RTVSPropertyOp30
 70
     1
102
RTVSPropertyOp31
 70
     1
102
RTVSPropertyOp32
 70
     1
  0
XRECORD
  5
1E2
102
{ACAD_REACTORS
330
1E1
102
}
330
1E1
100
AcDbXrecord
280
     1
102
RTVSPropertyOp0
 70
     1
102
RTVSPropertyOp1
 70
     1
102
RTVSPropertyOp2
 70
     1
102
RTVSPropertyOp3
 70
     1
102
RTVSPropertyOp4
 70
     1
102
RTVSPropertyOp5
 70
     1
102
RTVSPropertyOp6
 70
     1
102
RTVSPropertyOp7
 70
     1
102
RTVSPropertyOp8
 70
     1
102
RTVSPropertyOp9
 70
     1
102
RTVSPropertyOp10
 70
     1
102
RTVSPropertyOp11
 70
     1
102
RTVSPropertyOp12
 70
     1
102
RTVSPropertyOp13
 70
     1
102
RTVSPropertyOp14
 70
     1
102
RTVSPropertyOp15
 70
     1
102
RTVSPropertyOp16
 70
     1
102
RTVSPropertyOp17
 70
     1
102
RTVSPropertyOp18
 70
     1
102
RTVSPropertyOp19
 70
     1
102
RTVSPropertyOp20
 70
     1
102
RTVSPropertyOp21
 70
     1
102
RTVSPropertyOp22
 70
     1
102
RTVSPropertyOp23
 70
     1
102
RTVSPropertyOp24
 70
     1
102
RTVSPropertyOp25
 70
     1
102
RTVSPropertyOp26
 70
     1
102
RTVSPropertyOp27
 70
     1
102
RTVSPropertyOp28
 70
     1
102
RTVSPropertyOp29
 70
     1
102
RTVSPropertyOp30
 70
     1
102
RTVSPropertyOp31
 70
     1
102
RTVSPropertyOp32
 70
     1
  0
XRECORD
  5
1EA
102
{ACAD_REACTORS
330
1E9
102
}
330
1E9
100
AcDbXrecord
280
     1
102
RTVSPropertyOp0
 70
     1
102
RTVSPropertyOp1
 70
     1
102
RTVSPropertyOp2
 70
     1
102
RTVSPropertyOp3
 70
     1
102
RTVSPropertyOp4
 70
     1
102
RTVSPropertyOp5
 70
     1
102
RTVSPropertyOp6
 70
     1
102
RTVSPropertyOp7
 70
     1
102
RTVSPropertyOp8
 70
     1
102
RTVSPropertyOp9
 70
     1
102
RTVSPropertyOp10
 70
     1
102
RTVSPropertyOp11
 70
     1
102
RTVSPropertyOp12
 70
     1
102
RTVSPropertyOp13
 70
     1
102
RTVSPropertyOp14
 70
     1
102
RTVSPropertyOp15
 70
     1
102
RTVSPropertyOp16
 70
     1
102
RTVSPropertyOp17
 70
     1
102
RTVSPropertyOp18
 70
     1
102
RTVSPropertyOp19
 70
     1
102
RTVSPropertyOp20
 70
     1
102
RTVSPropertyOp21
 70
     1
102
RTVSPropertyOp22
 70
     1
102
RTVSPropertyOp23
 70
     1
102
RTVSPropertyOp24
 70
     1
102
RTVSPropertyOp25
 70
     1
102
RTVSPropertyOp26
 70
     1
102
RTVSPropertyOp27
 70
     1
102
RTVSPropertyOp28
 70
     1
102
RTVSPropertyOp29
 70
     1
102
RTVSPropertyOp30
 70
     1
102
RTVSPropertyOp31
 70
     1
102
RTVSPropertyOp32
 70
     1
  0
ENDSEC
  0
SECTION
  2
THUMBNAILIMAGE
 90
    16364
310
28000000B40000005500000001000800000000000000000000000000000000000000000000000000FFFFFF00FF000000FFFF000000FF000000FFFF000000FF00FF00FF000000000080808000C0C0C000FF000000FF7F7F00A5000000A55252007F0000007F3F3F004C0000004C2626002600000026131300FF3F0000FF9F7F
310
00A5290000A56752007F1F00007F4F3F004C1300004C2F26002609000026171300FF7F0000FFBF7F00A5520000A57C52007F3F00007F5F3F004C2600004C39260026130000261C1300FFBF0000FFDF7F00A57C0000A59152007F5F00007F6F3F004C3900004C422600261C000026211300FFFF0000FFFF7F00A5A50000A5A5
310
52007F7F00007F7F3F004C4C00004C4C26002626000026261300BFFF0000DFFF7F007CA5000091A552005F7F00006F7F3F00394C0000424C26001C260000212613007FFF0000BFFF7F0052A500007CA552003F7F00005F7F3F00264C0000394C2600132600001C2613003FFF00009FFF7F0029A5000067A552001F7F00004F
310
7F3F00134C00002F4C2600092600001726130000FF00007FFF7F0000A5000052A55200007F00003F7F3F00004C0000264C2600002600001326130000FF3F007FFF9F0000A5290052A56700007F1F003F7F4F00004C1300264C2F00002609001326170000FF7F007FFFBF0000A5520052A57C00007F3F003F7F5F00004C2600
310
264C39000026130013261C0000FFBF007FFFDF0000A57C0052A59100007F5F003F7F6F00004C3900264C420000261C001326210000FFFF007FFFFF0000A5A50052A5A500007F7F003F7F7F00004C4C00264C4C00002626001326260000BFFF007FDFFF00007CA5005291A500005F7F003F6F7F0000394C0026424C00001C26
310
0013212600007FFF007FBFFF000052A500527CA500003F7F003F5F7F0000264C0026394C0000132600131C2600003FFF007F9FFF000029A5005267A500001F7F003F4F7F0000134C00262F4C0000092600131726000000FF007F7FFF000000A5005252A50000007F003F3F7F0000004C0026264C0000002600131326003F00
310
FF009F7FFF002900A5006752A5001F007F004F3F7F0013004C002F264C0009002600171326007F00FF00BF7FFF005200A5007C52A5003F007F005F3F7F0026004C0039264C00130026001C132600BF00FF00DF7FFF007C00A5009152A5005F007F006F3F7F0039004C0042264C001C00260021132600FF00FF00FF7FFF00A5
310
00A500A552A5007F007F007F3F7F004C004C004C264C002600260026132600FF00BF00FF7FDF00A5007C00A55291007F005F007F3F6F004C0039004C26420026001C0026132100FF007F00FF7FBF00A5005200A5527C007F003F007F3F5F004C0026004C2639002600130026131C00FF003F00FF7F9F00A5002900A5526700
310
7F001F007F3F4F004C0013004C262F002600090026131700000000002D2D2D005B5B5B0089898900B7B7B700B3B3B30000000000000000000000000000000000000000000000000000000000000000000000000000000000000000000000000000000000000000000000000000000000000000000000000000000000000000
310
00000000000000000000000000000000000000000000000000000000000000000000000000000000000000000000000000000000000000000000000000000000000000000000000000000000000000000000000000000000000000000000000000000000000000000000000000000000000000000000000000000000000000
310
00000000000000000000000000000000000000000000000000000000000000000000000000000000000000000001010101010101010101010101010000000000000000000000010101010101010101010101010100000000000000000000000000000000000000000000000000000000000000000000000000000000000000
310
00000000000000000000000000000000000000000000000000000000000000000000000000000000000000000000000000000000000000000000000000000000000000000000000000000000000000000000000000000000000000000000000000010000000001010101010101000001010000000000000000000101000001
310
01010101010100000000010000000000000000000000000000000000000000000000000000000000000000000000000000000000000000000000000000000000000000000000000000000000000000000000000000000000000000000000000000000000000000000000000000000000000000000000000000000000000000
310
00000000000000000000000000000000000000000000010000000000010000000000000100000100000000000000000001000001010000000000010000000001000000000000000000000000000000000000000000000000000000000000000000000000000000000000000000000000000000000000000000000000000000
310
00000000000000000000000000000000000000000000000000000000000000000000000000000000000000000000000000000000000000000000000000000000000000000000000000000001000000000001000000000000010000010000000000000000000100000100000000000001010000000001000000000000000000
310
00000000000000000000000000000000000000000000000000000000000000000000000000000000000000000000000000000000000000000000000000000000000000000000000000000000000000000000000000000000000000000000000000000000000000000000000000000000000000000000000000000000000000
310
00010000000101000000000000000100000100000000000000000001000000010000000000000001000000010000000000000000000000000000000000000000000000000000000000000000000000000000000000000000000000000000000000000000000000000000000000000000000000000000000000000000000000
310
00000000000000000000000000000000000000000000000000000000000000000000000000000000000000000000000000000000000001000001000000000001010101000000010000000000000000000100000001010101000000000100000001000000000000000000000000000000000000000000000000000000000000
310
00000000000000000000000000000000000000000000000000000000000000000000000000000000000000000000000000000000000000000000000000000000000000000000000000000000000000000000000000000000000000000000000000000000000000000000000100010100000000000101010101010101000000
310
00000000000001010101010101010000000000010100010000000000000000000000000000000000000000000000000000000000000000000000000000000000000000000000000000000000000000000000000000000000000000000000000000000000000000000000000000000000000000000000000000000000000000
310
00000000000000000000000000000000000000000000000000000000000000000001000100000000000100010000000000000000000000000000000000000000000100010000000000010001000000000000000000000000000000000000000000000000000000000000000000000000000000000000000000000000000000
310
00000000000000000000000000000000000000000000000000000000000000000000000000000000000000000000000000000000000000000000000000000000000000000000000000000000000000000000000000000100010000000101000001000000000000000000000000000000000000000000010000010100000001
310
00010000000000000000000000000000000000000000000000000000000000000000000000000000000000000000000000000000000000000000000000000000000000000000000000000000000000000000000000000000000000000000000000000000000000000000000000000000000000000000000000000000000000
310
00000000000000000000000001000100000100000000010000000000000000000000000000000000000000000100000000010000010001000000000000000000000000000000000000000000000000000000000000000000000000000000000000000000000000000000000000000000000000000000000000000000000000
310
00000000000000000000000000000000000000000000000000000000000000000000000000000000000000000000000000000000000000000000000000000000000100010000010101010100010000000000000000000000000000000000000001000101010101000001000100000000000000000000000000000000000000
310
00000000000000000000000000000000000000000000000000000000000000000000000000000000000000000000000000000000000000000000000000000000000000000000000000000000000000000000000000000000000000000000000000000000000000000000000000000000000000000000010001000001010000
310
00010001010000000000000000000000000000000101000100000001010000010001000000000000000000000000000000000000000000000000000000000000000000000000000000000000000000000000000000000000000000000000000000000000000000000000000000000000000000000000000000000000000000
310
00000000000000000000000000000000000000000000000000000000000000000000000000000000000000000100010000010100000000010000010000000000000000000000000001000001000000000100010001000100000000000000000000000000000000000000000000000000000000000000000000000000000000
310
00000000000000000000000000000000000000000000000000000000000000000000000000000000000000000000000000000000000000000000000000000000000000000000000000000000000000000000000000000000000000000000000000010000010100010000000001000000010101010101000101010101010000
310
00010000000001000001000001000000000000000000000000000000000000000000000000000000000000000000000000000000000000000000000000000000000000000000000000000000000000000000000000000000000000000000000000000000000000000000000000000000000000000000000000000000000000
310
00000000000000000000000000000000000000000000000100000000000100000000000100000000000000000100000000000000000100000000000100000000000100000000000000000000000000000000000000000000000000000000000000000000000000000000000000000000000000000000000000000000000000
310
00000000000000000000000000000000000000000000000000000000000000000000000000000000000000000000000000000000000000000000000000000000000000000000000000000000010101010101010000000000000100010101010100000001010101010001000000000000010101010101010000000000000000
310
00000000000000000000000000000000000000000000000000000000000000000000000000000000000000000000000000000000000000000000000000000000000000000000000000000000000000000000000000000000000000000000000000000000000000000000000000000000000000000000000000000000000000
310
00000000000000000000000000000001000100000001010101010000000100010000000000000000000000000000000000000000000000000000000000000000000000000000000000000000000000000000000000000000000000000000000000000000000000000000000000000000000000000000000000000000000000
310
00000000000000000000000000000000000000000000000000000000000000000000000000000000000000000000000000000000000000000000000000000000000000000100010000000000000000000000010001000000000000000000000000000000000000000000000000000000000000000000000000000000000000
310
00000000000000000000000000000000000000000000000000000000000000000000000000000000000000000000000000000000000000000000000000000000000000000000000000000000000000000000000000000000000000000000000000000000000000000000000000000000000000000000000000010001010000
310
00000000000000010100010000000000000000000000000000000000000000000000000000000000000000000000000000000000000000000000000000000000000000000000000000000000000000000000000000000000000000000000000000000000000000000000000000000000000000000000000000000000000000
310
00000000000000000000000000000000000000000000000000000000000000000000000000000000000000000000000100000100000000000000000001000001000000000000000000000000000000000000000000000000000000000000000000000000000000000000000000000000000000000000000000000000000000
310
00000000000000000000000000000000000000000000000000000000000000000000000000000000000000000000000000000000000000000000000000000000000000000000000000000000000000000000000000000000000000000000000000000000010000010000000000000000000100000100000000000000000000
310
00000000000000000000000000000000000000000000000000000000000000000000000000000000000000000000000000000000000000000000000000000000000000000000000000000000000000000000000000000000000000000000000000000000000000000000000000000000000000000000000000000000000000
310
00000000000000000000000000000000000000000000000000000001000100000000000000000001000100000000000000000000000000000000000000000000000000000000000000000000000000000000000000000000000000000000000000000000000000000000000000000000000000000000000000000000000000
310
00000000000000000000000000000000000000000000000000000000000000000000000000000000000000000000000000000000000000000000000000000000000000000000000000000000000000010000010000000000000000000100000100000000000000000000000000000000000000000000000000000000000000
310
00000000000000000000000000000000000000000000000000000000000000000000000000000000000000000000000000000000000000000000000000000000000000000000000000000000000000000000000000000000000000000000000000000000000000000000000000000000000000000000000000000000000000
310
00000000000100010100000000000000000001010001000000000000000000000000000000000000000000000000000000000000000000000000000000000000000000000000000000000000000000000000000000000000000000000000000000000000000000000000000000000000000000000000000000000000000000
310
00000000000000000000000000000000000000000000000000000000000000000000000000000000000000000000000000000000000000000000010001000000000000000000000001000100000000000000000000000000000000000000000000000000000000000000000000000000000000000000000000000000000000
310
00000000000000000000000000000000000000000000000000000000000000000000000000000000000000000000000000000000000000000000000000000000000000000000000000000000000000000000000000000000000000000000000000000000000000000000000000000001000100000000000000000000000100
310
01000000000000000000000000000000000000000000000000000000000000000000000000000000000000000000000000000000000000000000000000000000000000000000000000000000000000000000000000000000000000000000000000000000000000000000000000000000000000000000000000000000000000
310
00000000000000000000000000000000000000000000000000000101010101000000000000010001010101010101010101010101000100000000000001010101010000000000000000000000000000000000000000000000000000000000000000000000000000000000000000000000000000000000000000000000000000
310
00000000000000000000000000000000000000000000000000000000000000000000000000000000000000000000000000000000000000000000000000000000000000000000000000000000000101010000000100000000000001000000000000000000000000000000010000000000000100000001010100000000000000
310
00000000000000000000000000000000000000000000000000000000000000000000000000000000000000000000000000000000000000000000000000000000000000000000000000000000000000000000000000000000000000000000000000000000000000000000000000000000000000000000000000000000000000
310
00000001000000000001000000000001000001010101010101010101010101000001000000000001000000000001000000000000000000000000000000000000000000000000000000000000000000000000000000000000000000000000000000000000000000000000000000000000000000000000000000000000000000
310
00000000000000000000000000000000000000000000000000000000000000000000000000000000000000000000000000000000000000000100000000000100000000010000010000000000000000000000000001000001000000000100000000000100000000000000000000000000000000000000000000000000000000
310
00000000000000000000000000000000000000000000000000000000000000000000000000000000000000000000000000000000000000000000000000000000000000000000000000000000000000000000000000000000000000000000000000000000000000000000000000010000000000010000000100000100000000
310
00000000000000000000000100000100000001000000000001000000000000000000000000000000000000000000000000000000000000000000000000000000000000000000000000000000000000000000000000000000000000000000000000000000000000000000000000000000000000000000000000000000000000
310
00000000000000000000000000000000000000000000000000000000000000000000000100000000000101010100000100000000000000000000000000000000000100000101010100000000000100000000000000000000000000000000000000000000000000000000000000000000000000000000000000000000000000
310
00000000000000000000000000000000000000000000000000000000000000000000000000000000000000000000000000000000000000000000000000000000000000000000000000000000000000000000000000000000010000000000000000000001000000000000000000000000000000000000000100000000000000
310
00000001000000000000000000000000000000000000000000000000000000000000000000000000000000000000000000000000000000000000000000000000000000000000000000000000000000000000000000000000000000000000000000000000000000000000000000000000000000000000000000000000000000
310
00000000000000000000000000000100000001010101010101000000000000000000000000000000000000000000010101010101010100000100000000000000000000000000000000000000000000000000000000000000000000000000000000000000000000000000000000000000000000000000000000000000000000
310
00000000000000000000000000000000000000000000000000000000000000000000000000000000000000000000000000000000000000000000000000000000000000010000010000000000000000000000000000000000000000000000000000000000000000000000010000010000000000000000000000000000000000
310
00000000000000000000000000000000000000000000000000000000000000000000000000000000000000000000000000000000000000000000000000000000000000000000000000000000000000000000000000000000000000000000000000000000000000000000000000000000000000000000000001010001000000
310
00000000000000000000000000000000000000000000000000000000000000000100010100000000000000000000000000000000000000000000000000000000000000000000000000000000000000000000000000000000000000000000000000000000000000000000000000000000000000000000000000000000000000
310
00000000000000000000000000000000000000000000000000000000000000000000000000000000000000000000000100010000000000000000000000000000000000000000000000000000000000000000000000010001000000000000000000000000000000000000000000000000000000000000000000000000000000
310
00000000000000000000000000000000000000000000000000000000000000000000000000000000000000000000000000000000000000000000000000000000000000000000000000000000000000000000000000000000000000000000000000000000010001000000000000000000000000000000000000000000000000
310
00000000000000000000000100010000000000000000000000000000000000000000000000000000000000000000000000000000000000000000000000000000000000000000000000000000000000000000000000000000000000000000000000000000000000000000000000000000000000000000000000000000000000
310
00000000000000000000000000000000000000000000000000000100010000000000000000000000000000000000000000000000000000000000000000000000010001000000000000000000000000000000000000000000000000000000000000000000000000000000000000000000000000000000000000000000000000
310
00000000000000000000000000000000000000000000000000000000000000000000000000000000000000000000000000000000000000000000000000000000000000000000000000000000000000010001000000000000000000000000000000000000000000000000000000000000000000000001000100000000000000
310
00000000000000000000000000000000000000000000000000000000000000000000000000000000000000000000000000000000000000000000000000000000000000000000000000000000000000000000000000000000000000000000000000000000000000000000000000000000000000000000000000000000000000
310
00000000000100010000000000000000000000000000000000000000000000000000000000000000000000010001000000000000000000000000000000000000000000000000000000000000000000000000000000000000000000000000000000000000000000000000000000000000000000000000000000000000000000
310
00000000000000000000000000000000000000000000000000000000000000000000000000000000000000000000000000000000000000000000010001000000000000000000000000000000000000000000000000000000000000000000000001000100000000000000000000000000000000000000000000000000000000
310
00000000000000000000000000000000000000000000000000000000000000000000000000000000000000000000000000000000000000000000000000000000000000000000000000000000000000000000000000000000000000000000000000000000000000000000000000000001000100000000000000000000000000
310
00000000000000000000000000000000000000000000010001000000000000000000000000000000000000000000000000000000000000000000000000000000000000000000000000000000000000000000000000000000000000000000000000000000000000000000000000000000000000000000000000000000000000
310
00000000000000000000000000000000000000000000000000000000000000000000000000010001000000000000000000000000000000000000000000000000000000000000000000000001000100000000000000000000000000000000000000000000000000000000000000000000000000000000000000000000000000
310
00000000000000000000000000000000000000000000000000000000000000000000000000000000000000000000000000000000000000000000000000000000000000000000000000000000000000000000000000000000000001000100000000000000000000000000000000000000000000000000000000000000000000
310
00010001000000000000000000000000000000000000000000000000000000000000000000000000000000000000000000000000000000000000000000000000000000000000000000000000000000000000000000000000000000000000000000000000000000000000000000000000000000000000000000000000000000
310
00000000000000000000000000000000010001000000000000000000000000000000000000000000000000000000000000000000000001000100000000000000000000000000000000000000000000000000000000000000000000000000000000000000000000000000000000000000000000000000000000000000000000
310
00000000000000000000000000000000000000000000000000000000000000000000000000000000000000000000000000000000000000000000000000000000000000000001000100000000000000000000000000000000000000000000000000000000000000000000000100010000000000000000000000000000000000
310
00000000000000000000000000000000000000000000000000000000000000000000000000000000000000000000000000000000000000000000000000000000000000000000000000000000000000000000000000000000000000000000000000000000000000000000000000000000000000000000000000000100010000
310
00000000000000000000000000000000000000000000000000000000000000000001000100000000000000000000000000000000000000000000000000000000000000000000000000000000000000000000000000000000000000000000000000000000000000000000000000000000000000000000000000000000000000
310
00000000000000000000000000000000000000000000000000000000000000000000000000000000000000000000000101000100000000000000000000000000000000000000000000000000000000000000000000000100010100000000000000000000000000000000000000000000000000000000000000000000000000
310
00000000000000000000000000000000000000000000000000000000000000000000000000000000000000000000000000000000000000000000000000000000000000000000000000000000000000000000000000000000000000000000000000000000010000010000000000000000000000000000000000000000000000
310
00000000000000000000000001000001000000000000000000000000000000000000000000000000000000000000000000000000000000000000000000000000000000000000000000000000000000000000000000000000000000000000000000000000000000000000000000000000000000000000000000000000000000
310
00000000000000000000000000000000000000000000000000000100000101010101010101000000000000000000000000000000000000000000010101010101010000000100000000000000000000000000000000000000000000000000000000000000000000000000000000000000000000000000000000000000000000
310
00000000000000000000000000000000000000000000000000000000000000000000000000000000000000000000000000000000000000000000000000000000000000000000000000000000000000010000000000000000000001000000000000000000000000000000000000000100000000000000000000010000000000
310
00000000000000000000000000000000000000000000000000000000000000000000000000000000000000000000000000000000000000000000000000000000000000000000000000000000000000000000000000000000000000000000000000000000000000000000000000000000000000000000000000000000000000
310
00000000000100000000000101010100000100000000000000000000000000000000000100000101010100000000000100000000000000000000000000000000000000000000000000000000000000000000000000000000000000000000000000000000000000000000000000000000000000000000000000000000000000
310
00000000000000000000000000000000000000000000000000000000000000000000000000000000000000000000000000000000000000000000010000000000010000000100000100000000000000000000000000000001000001000000010000000000010000000000000000000000000000000000000000000000000000
310
00000000000000000000000000000000000000000000000000000000000000000000000000000000000000000000000000000000000000000000000000000000000000000000000000000000000000000000000000000000000000000000000000000000000000000000000000000001000000000001000000000100000100
310
00000000000000000000000001000001000000000100000000000100000000000000000000000000000000000000000000000000000000000000000000000000000000000000000000000000000000000000000000000000000000000000000000000000000000000000000000000000000000000000000000000000000000
310
00000000000000000000000000000000000000000000000000000000000000000000000000010000000000010000000000010000010101010101010101010101010000010000000000010000000000010000000000000000000000000000000000000000000000000000000000000000000000000000000000000000000000
310
00000000000000000000000000000000000000000000000000000000000000000000000000000000000000000000000000000000000000000000000000000000000000000000000000000000000000000000000000000000000001010100000001000000000000010000000000000000000000000000000100000000000001
310
00000001010100000000000000000000000000000000000000000000000000000000000000000000000000000000000000000000000000000000000000000000000000000000000000000000000000000000000000000000000000000000000000000000000000000000000000000000000000000000000000000000000000
310
00000000000000000000000000000000000001010101010000000000000100010101010101010101010101010001000000000000010101010100000000000000000000000000000000000000000000000000000000000000000000000000000000000000000000000000000000000000000000000000000000000000000000
310
00000000000000000000000000000000000000000000000000000000000000000000000000000000000000000000000000000000000000000000000000000000000000000000000000000000000000000000010001000000000000000000000001000100000000000000000000000000000000000000000000000000000000
310
00000000000000000000000000000000000000000000000000000000000000000000000000000000000000000000000000000000000000000000000000000000000000000000000000000000000000000000000000000000000000000000000000000000000000000000000000000000000000000000000000000000000000
310
00000000000000000100010000000000000000000000010001000000000000000000000000000000000000000000000000000000000000000000000000000000000000000000000000000000000000000000000000000000000000000000000000000000000000000000000000000000000000000000000000000000000000
310
00000000000000000000000000000000000000000000000000000000000000000000000000000000000000000000000000000000000000000000000000010001010000000000000000000101000100000000000000000000000000000000000000000000000000000000000000000000000000000000000000000000000000
310
00000000000000000000000000000000000000000000000000000000000000000000000000000000000000000000000000000000000000000000000000000000000000000000000000000000000000000000000000000000000000000000000000000000000000000000000000000000000001000001000000000000000000
310
01000001000000000000000000000000000000000000000000000000000000000000000000000000000000000000000000000000000000000000000000000000000000000000000000000000000000000000000000000000000000000000000000000000000000000000000000000000000000000000000000000000000000
310
00000000000000000000000000000000000000000000000000000000000000000000000000000000000100010000000000000000000100010000000000000000000000000000000000000000000000000000000000000000000000000000000000000000000000000000000000000000000000000000000000000000000000
310
00000000000000000000000000000000000000000000000000000000000000000000000000000000000000000000000000000000000000000000000000000000000000000000000000000000000000000000000000000000000000000001000001000000000000000000010000010000000000000000000000000000000000
310
00000000000000000000000000000000000000000000000000000000000000000000000000000000000000000000000000000000000000000000000000000000000000000000000000000000000000000000000000000000000000000000000000000000000000000000000000000000000000000000000000000000000000
310
00000000000000000000000000000000000000010000010000000000000000000100000100000000000000000000000000000000000000000000000000000000000000000000000000000000000000000000000000000000000000000000000000000000000000000000000000000000000000000000000000000000000000
310
00000000000000000000000000000000000000000000000000000000000000000000000000000000000000000000000000000000000000000000000000000000000000000000000001000101000000000000000000010100010000000000000000000000000000000000000000000000000000000000000000000000000000
310
00000000000000000000000000000000000000000000000000000000000000000000000000000000000000000000000000000000000000000000000000000000000000000000000000000000000000000000000000000000000000000000000000000000000000000000000000000000000000000000000000000000000100
310
01000000000000000000000001000100000000000000000000000000000000000000000000000000000000000000000000000000000000000000000000000000000000000000000000000000000000000000000000000000000000000000000000000000000000000000000000000000000000000000000000000000000000
310
00000000000000000000000000000000000000000000000000000000000000000000000000000000000000000000000000000001000100000001010101010000000100010000000000000000000000000000000000000000000000000000000000000000000000000000000000000000000000000000000000000000000000
310
00000000000000000000000000000000000000000000000000000000000000000000000000000000000000000000000000000000000000000000000000000000000000000000000000000000000000000000000000000000000000010101010101010000000000000100010101010100000001010101010001000000000000
310
01010101010101000000000000000000000000000000000000000000000000000000000000000000000000000000000000000000000000000000000000000000000000000000000000000000000000000000000000000000000000000000000000000000000000000000000000000000000000000000000000000000000000
310
00000000000000000000000000000000000100000000000100000000000100000000000000000100000000000000000100000000000100000000000100000000000000000000000000000000000000000000000000000000000000000000000000000000000000000000000000000000000000000000000000000000000000
310
00000000000000000000000000000000000000000000000000000000000000000000000000000000000000000000000000000000000000000000000000000000000000000000010000010000010000000001000000010101010101000101010101010000000100000000010000010000010000000000000000000000000000
310
00000000000000000000000000000000000000000000000000000000000000000000000000000000000000000000000000000000000000000000000000000000000000000000000000000000000000000000000000000000000000000000000000000000000000000000000000000000000000000000000000000001000100
310
01000100000000010000010000000000000000000000000001000001000000000100010001000100000000000000000000000000000000000000000000000000000000000000000000000000000000000000000000000000000000000000000000000000000000000000000000000000000000000000000000000000000000
310
00000000000000000000000000000000000000000000000000000000000000000000000000000000000000000000000000010001000001010000000100010100000000000000000000000000000001010001000000010100000100010000000000000000000000000000000000000000000000000000000000000000000000
310
00000000000000000000000000000000000000000000000000000000000000000000000000000000000000000000000000000000000000000000000000000000000000000000000000000000000000000000000000000000000000000000000000000000000001000100000101010101000100000000000000000000000000
310
00000000000001000101010101000001000100000000000000000000000000000000000000000000000000000000000000000000000000000000000000000000000000000000000000000000000000000000000000000000000000000000000000000000000000000000000000000000000000000000000000000000000000
310
00000000000000000000000000000000000000000000000000000000010001000001000000000100000000000000000000000000000000000000000001000000000100000100010000000000000000000000000000000000000000000000000000000000000000000000000000000000000000000000000000000000000000
310
00000000000000000000000000000000000000000000000000000000000000000000000000000000000000000000000000000000000000000000000000000000000000000000000000000000000000000001000100000001010000010000000000000000000000000000000000000000000100000101000000010001000000
310
00000000000000000000000000000000000000000000000000000000000000000000000000000000000000000000000000000000000000000000000000000000000000000000000000000000000000000000000000000000000000000000000000000000000000000000000000000000000000000000000000000000000000
310
00000000000000010001000000000001000100000000000000000000000000000000000000000001000100000000000100010000000000000000000000000000000000000000000000000000000000000000000000000000000000000000000000000000000000000000000000000000000000000000000000000000000000
310
00000000000000000000000000000000000000000000000000000000000000000000000000000000000000000000000000000000000000000000000001000101000000000001010101010101010000000000000000000101010101010101000000000001010001000000000000000000000000000000000000000000000000
310
00000000000000000000000000000000000000000000000000000000000000000000000000000000000000000000000000000000000000000000000000000000000000000000000000000000000000000000000000000000000000000000000000000000000000000000000000000000000100000001000000000101010100
310
00000100000000000000000001000000010101010000000000010000010000000000000000000000000000000000000000000000000000000000000000000000000000000000000000000000000000000000000000000000000000000000000000000000000000000000000000000000000000000000000000000000000000
310
00000000000000000000000000000000000000000000000000000000000000000000000000000001000000010000000000000000010000010000000000000000000100000100000000000000010100000001000000000000000000000000000000000000000000000000000000000000000000000000000000000000000000
310
00000000000000000000000000000000000000000000000000000000000000000000000000000000000000000000000000000000000000000000000000000000000000000000000000000000000000000000000000000000000000000100000000010100000000000001000001000000000000000000010000010000000000
310
00010000000000010000000000000000000000000000000000000000000000000000000000000000000000000000000000000000000000000000000000000000000000000000000000000000000000000000000000000000000000000000000000000000000000000000000000000000000000000000000000000000000000
310
00000000000000000000000000000000000000010000000001000000000000010000010000000000000000000100000100000000000001000000000001000000000000000000000000000000000000000000000000000000000000000000000000000000000000000000000000000000000000000000000000000000000000
310
00000000000000000000000000000000000000000000000000000000000000000000000000000000000000000000000000000000000000000000000000000000000000000000000001000000000101010101010100000101000000000000000000010100000101010101010100000001010000000000000000000000000000
310
00000000000000000000000000000000000000000000000000000000000000000000000000000000000000000000000000000000000000000000000000000000000000000000000000000000000000000000000000000000000000000000000000000000000000000000000000000000000000000000000000000000000001
310
010101010101010101010101010000000000000000000000010101010101010101010101010000000000000000000000000000000000000000000000000000000000000000000000000000000000000000000000000000000000000000000000000000000000000000000000
  0
ENDSEC
  0
EOF
